ISO-10303-21;
HEADER;
FILE_DESCRIPTION( ( 'Unknown' ), '1' );
FILE_NAME( 's:/Solid Edge/ºô¸ô¥Î-3D/BP-3D/BP27-3D/BP27-125098-125.stp', 'Unknown', ( 'S.C.H' ), ( 'Unknown' ), 'XStep 1.0', 'Unknown', '  ' );
FILE_SCHEMA( ( 'CONFIG_CONTROL_DESIGN' ) );
ENDSEC;
DATA;
#1 = DESIGN_CONTEXT( '', #27, 'design' );
#2 = APPLICATION_PROTOCOL_DEFINITION( 'INTERNATIONAL STANDARD', 'config_control_design', 1994, #27 );
#3 = PRODUCT_CATEGORY_RELATIONSHIP( 'NONE', 'NONE', #28, #29 );
#4 = DATE_AND_TIME( #30, #31 );
#5 = DATE_TIME_ROLE( 'creation_date' );
#6 = DATE_TIME_ROLE( 'classification_date' );
#7 = PERSON_AND_ORGANIZATION_ROLE( 'creator' );
#8 = PERSON_AND_ORGANIZATION_ROLE( 'design_supplier' );
#9 = PERSON_AND_ORGANIZATION_ROLE( 'classification_officer' );
#10 = PERSON_AND_ORGANIZATION_ROLE( 'design_owner' );
#11 = APPROVAL_PERSON_ORGANIZATION( #32, #33, #34 );
#12 = APPROVAL_DATE_TIME( #4, #33 );
#13 = CC_DESIGN_APPROVAL( #33, ( #35, #36, #37 ) );
#14 = CC_DESIGN_DATE_AND_TIME_ASSIGNMENT( #4, #5, ( #37 ) );
#15 = CC_DESIGN_DATE_AND_TIME_ASSIGNMENT( #4, #6, ( #35 ) );
#16 = CC_DESIGN_PERSON_AND_ORGANIZATION_ASSIGNMENT( #32, #10, ( #38 ) );
#17 = CC_DESIGN_PERSON_AND_ORGANIZATION_ASSIGNMENT( #32, #7, ( #37 ) );
#18 = CC_DESIGN_PERSON_AND_ORGANIZATION_ASSIGNMENT( #32, #7, ( #36 ) );
#19 = CC_DESIGN_PERSON_AND_ORGANIZATION_ASSIGNMENT( #32, #8, ( #36 ) );
#20 = CC_DESIGN_SECURITY_CLASSIFICATION( #35, ( #36 ) );
#21 = CC_DESIGN_PERSON_AND_ORGANIZATION_ASSIGNMENT( #32, #9, ( #35 ) );
#22 = SHAPE_DEFINITION_REPRESENTATION( #39, #40 );
#23 =  ( GEOMETRIC_REPRESENTATION_CONTEXT( 3 )GLOBAL_UNCERTAINTY_ASSIGNED_CONTEXT( ( #43 ) )GLOBAL_UNIT_ASSIGNED_CONTEXT( ( #45, #46, #47 ) )REPRESENTATION_CONTEXT( 'NONE', 'WORKSPACE' ) );
#27 = APPLICATION_CONTEXT( 'CONFIGURATION CONTROLLED 3D DESIGNS OF MECHANICAL PARTS AND ASSEMBLIES' );
#28 = PRODUCT_CATEGORY( 'part', 'NONE' );
#29 = PRODUCT_RELATED_PRODUCT_CATEGORY( 'detail', ' ', ( #38 ) );
#30 = CALENDAR_DATE( 2014, 10, 10 );
#31 = LOCAL_TIME( 11, 2, 0.000000000000000, #49 );
#32 = PERSON_AND_ORGANIZATION( #50, #51 );
#33 = APPROVAL( #52, 'SOLID MODEL' );
#34 = APPROVAL_ROLE( 'APPROVED' );
#35 = SECURITY_CLASSIFICATION( '', '', #53 );
#36 = PRODUCT_DEFINITION_FORMATION_WITH_SPECIFIED_SOURCE( ' ', 'NONE', #38, .NOT_KNOWN. );
#37 = PRODUCT_DEFINITION( 'NONE', 'NONE', #36, #1 );
#38 = PRODUCT( '1', '1', 'PART-1-DESC', ( #54 ) );
#39 = PRODUCT_DEFINITION_SHAPE( 'NONE', 'NONE', #37 );
#40 = ADVANCED_BREP_SHAPE_REPRESENTATION( '1', ( #55, #56 ), #23 );
#43 = UNCERTAINTY_MEASURE_WITH_UNIT( LENGTH_MEASURE( 0.00100000000000000 ), #45, '', '' );
#45 =  ( CONVERSION_BASED_UNIT( 'MILLIMETRE', #59 )LENGTH_UNIT(  )NAMED_UNIT( #62 ) );
#46 =  ( NAMED_UNIT( #64 )PLANE_ANGLE_UNIT(  )SI_UNIT( $, .RADIAN. ) );
#47 =  ( NAMED_UNIT( #64 )SOLID_ANGLE_UNIT(  )SI_UNIT( $, .STERADIAN. ) );
#49 = COORDINATED_UNIVERSAL_TIME_OFFSET( 8, 0, .AHEAD. );
#50 = PERSON( '', 'UNSPECIFIED', $, $, $, $ );
#51 = ORGANIZATION( 'UNSPECIFIED', 'UNSPECIFIED', 'UNSPECIFIED' );
#52 = APPROVAL_STATUS( 'approved' );
#53 = SECURITY_CLASSIFICATION_LEVEL( 'unclassified' );
#54 = MECHANICAL_CONTEXT( '', #27, 'mechanical' );
#55 = MANIFOLD_SOLID_BREP( '1', #70 );
#56 = AXIS2_PLACEMENT_3D( '', #71, #72, #73 );
#59 = LENGTH_MEASURE_WITH_UNIT( LENGTH_MEASURE( 1.00000000000000 ), #74 );
#62 = DIMENSIONAL_EXPONENTS( 1.00000000000000, 0.000000000000000, 0.000000000000000, 0.000000000000000, 0.000000000000000, 0.000000000000000, 0.000000000000000 );
#64 = DIMENSIONAL_EXPONENTS( 0.000000000000000, 0.000000000000000, 0.000000000000000, 0.000000000000000, 0.000000000000000, 0.000000000000000, 0.000000000000000 );
#70 = CLOSED_SHELL( '', ( #75, #76, #77, #78, #79, #80, #81, #82, #83, #84 ) );
#71 = CARTESIAN_POINT( '', ( 0.000000000000000, 0.000000000000000, 0.000000000000000 ) );
#72 = DIRECTION( '', ( 0.000000000000000, 0.000000000000000, 1.00000000000000 ) );
#73 = DIRECTION( '', ( 1.00000000000000, 0.000000000000000, 0.000000000000000 ) );
#74 =  ( NAMED_UNIT( #62 )LENGTH_UNIT(  )SI_UNIT( .MILLI., .METRE. ) );
#75 = ADVANCED_FACE( '', ( #86 ), #87, .F. );
#76 = ADVANCED_FACE( '', ( #88, #89 ), #90, .F. );
#77 = ADVANCED_FACE( '', ( #91 ), #92, .F. );
#78 = ADVANCED_FACE( '', ( #93 ), #94, .F. );
#79 = ADVANCED_FACE( '', ( #95, #96 ), #97, .T. );
#80 = ADVANCED_FACE( '', ( #98 ), #99, .F. );
#81 = ADVANCED_FACE( '', ( #100 ), #101, .T. );
#82 = ADVANCED_FACE( '', ( #102 ), #103, .T. );
#83 = ADVANCED_FACE( '', ( #104 ), #105, .T. );
#84 = ADVANCED_FACE( '', ( #106 ), #107, .T. );
#86 = FACE_OUTER_BOUND( '', #108, .T. );
#87 = PLANE( '', #109 );
#88 = FACE_BOUND( '', #110, .T. );
#89 = FACE_OUTER_BOUND( '', #111, .T. );
#90 = PLANE( '', #112 );
#91 = FACE_OUTER_BOUND( '', #113, .T. );
#92 = PLANE( '', #114 );
#93 = FACE_OUTER_BOUND( '', #115, .T. );
#94 = PLANE( '', #116 );
#95 = FACE_BOUND( '', #117, .T. );
#96 = FACE_OUTER_BOUND( '', #118, .T. );
#97 = PLANE( '', #119 );
#98 = FACE_OUTER_BOUND( '', #120, .T. );
#99 = PLANE( '', #121 );
#100 = FACE_OUTER_BOUND( '', #122, .T. );
#101 = PLANE( '', #123 );
#102 = FACE_OUTER_BOUND( '', #124, .T. );
#103 = PLANE( '', #125 );
#104 = FACE_OUTER_BOUND( '', #126, .T. );
#105 = PLANE( '', #127 );
#106 = FACE_OUTER_BOUND( '', #128, .T. );
#107 = PLANE( '', #129 );
#108 = EDGE_LOOP( '', ( #130, #131, #132, #133 ) );
#109 = AXIS2_PLACEMENT_3D( '', #134, #135, #136 );
#110 = EDGE_LOOP( '', ( #137, #138, #139, #140 ) );
#111 = EDGE_LOOP( '', ( #141, #142, #143, #144 ) );
#112 = AXIS2_PLACEMENT_3D( '', #145, #146, #147 );
#113 = EDGE_LOOP( '', ( #148, #149, #150, #151 ) );
#114 = AXIS2_PLACEMENT_3D( '', #152, #153, #154 );
#115 = EDGE_LOOP( '', ( #155, #156, #157, #158 ) );
#116 = AXIS2_PLACEMENT_3D( '', #159, #160, #161 );
#117 = EDGE_LOOP( '', ( #162, #163, #164, #165 ) );
#118 = EDGE_LOOP( '', ( #166, #167, #168, #169 ) );
#119 = AXIS2_PLACEMENT_3D( '', #170, #171, #172 );
#120 = EDGE_LOOP( '', ( #173, #174, #175, #176 ) );
#121 = AXIS2_PLACEMENT_3D( '', #177, #178, #179 );
#122 = EDGE_LOOP( '', ( #180, #181, #182, #183 ) );
#123 = AXIS2_PLACEMENT_3D( '', #184, #185, #186 );
#124 = EDGE_LOOP( '', ( #187, #188, #189, #190 ) );
#125 = AXIS2_PLACEMENT_3D( '', #191, #192, #193 );
#126 = EDGE_LOOP( '', ( #194, #195, #196, #197 ) );
#127 = AXIS2_PLACEMENT_3D( '', #198, #199, #200 );
#128 = EDGE_LOOP( '', ( #201, #202, #203, #204 ) );
#129 = AXIS2_PLACEMENT_3D( '', #205, #206, #207 );
#130 = ORIENTED_EDGE( '', *, *, #208, .T. );
#131 = ORIENTED_EDGE( '', *, *, #209, .F. );
#132 = ORIENTED_EDGE( '', *, *, #210, .F. );
#133 = ORIENTED_EDGE( '', *, *, #211, .T. );
#134 = CARTESIAN_POINT( '', ( -62.5000000000000, -49.0000000000000, 62.5000000000000 ) );
#135 = DIRECTION( '', ( 1.00000000000000, 0.000000000000000, -1.11022302462516E-016 ) );
#136 = DIRECTION( '', ( -1.11022302462516E-016, 0.000000000000000, -1.00000000000000 ) );
#137 = ORIENTED_EDGE( '', *, *, #212, .T. );
#138 = ORIENTED_EDGE( '', *, *, #213, .T. );
#139 = ORIENTED_EDGE( '', *, *, #214, .T. );
#140 = ORIENTED_EDGE( '', *, *, #215, .T. );
#141 = ORIENTED_EDGE( '', *, *, #208, .F. );
#142 = ORIENTED_EDGE( '', *, *, #216, .F. );
#143 = ORIENTED_EDGE( '', *, *, #217, .F. );
#144 = ORIENTED_EDGE( '', *, *, #218, .F. );
#145 = CARTESIAN_POINT( '', ( -62.5000000000000, 49.0000000000000, -62.5000000000000 ) );
#146 = DIRECTION( '', ( 0.000000000000000, -1.00000000000000, 0.000000000000000 ) );
#147 = DIRECTION( '', ( 0.000000000000000, 0.000000000000000, -1.00000000000000 ) );
#148 = ORIENTED_EDGE( '', *, *, #218, .T. );
#149 = ORIENTED_EDGE( '', *, *, #219, .F. );
#150 = ORIENTED_EDGE( '', *, *, #220, .F. );
#151 = ORIENTED_EDGE( '', *, *, #209, .T. );
#152 = CARTESIAN_POINT( '', ( -62.5000000000000, -49.0000000000000, -62.5000000000000 ) );
#153 = DIRECTION( '', ( -1.11022302462516E-016, 0.000000000000000, 1.00000000000000 ) );
#154 = DIRECTION( '', ( 1.00000000000000, 0.000000000000000, 1.11022302462516E-016 ) );
#155 = ORIENTED_EDGE( '', *, *, #217, .T. );
#156 = ORIENTED_EDGE( '', *, *, #221, .F. );
#157 = ORIENTED_EDGE( '', *, *, #222, .F. );
#158 = ORIENTED_EDGE( '', *, *, #219, .T. );
#159 = CARTESIAN_POINT( '', ( 62.5000000000000, -49.0000000000000, -62.5000000000000 ) );
#160 = DIRECTION( '', ( -1.00000000000000, 0.000000000000000, -1.11022302462516E-016 ) );
#161 = DIRECTION( '', ( -1.11022302462516E-016, 0.000000000000000, 1.00000000000000 ) );
#162 = ORIENTED_EDGE( '', *, *, #223, .F. );
#163 = ORIENTED_EDGE( '', *, *, #224, .F. );
#164 = ORIENTED_EDGE( '', *, *, #225, .F. );
#165 = ORIENTED_EDGE( '', *, *, #226, .F. );
#166 = ORIENTED_EDGE( '', *, *, #210, .T. );
#167 = ORIENTED_EDGE( '', *, *, #220, .T. );
#168 = ORIENTED_EDGE( '', *, *, #222, .T. );
#169 = ORIENTED_EDGE( '', *, *, #227, .T. );
#170 = CARTESIAN_POINT( '', ( -62.5000000000000, -49.0000000000000, -62.5000000000000 ) );
#171 = DIRECTION( '', ( 0.000000000000000, -1.00000000000000, 0.000000000000000 ) );
#172 = DIRECTION( '', ( 0.000000000000000, 0.000000000000000, -1.00000000000000 ) );
#173 = ORIENTED_EDGE( '', *, *, #216, .T. );
#174 = ORIENTED_EDGE( '', *, *, #211, .F. );
#175 = ORIENTED_EDGE( '', *, *, #227, .F. );
#176 = ORIENTED_EDGE( '', *, *, #221, .T. );
#177 = CARTESIAN_POINT( '', ( 62.5000000000000, -49.0000000000000, 62.5000000000000 ) );
#178 = DIRECTION( '', ( 1.11022302462516E-016, 0.000000000000000, -1.00000000000000 ) );
#179 = DIRECTION( '', ( -1.00000000000000, 0.000000000000000, -1.11022302462516E-016 ) );
#180 = ORIENTED_EDGE( '', *, *, #213, .F. );
#181 = ORIENTED_EDGE( '', *, *, #228, .F. );
#182 = ORIENTED_EDGE( '', *, *, #226, .T. );
#183 = ORIENTED_EDGE( '', *, *, #229, .T. );
#184 = CARTESIAN_POINT( '', ( -42.5000000000000, -49.0000000000000, -42.5000000000000 ) );
#185 = DIRECTION( '', ( 1.63268091856640E-016, 0.000000000000000, 1.00000000000000 ) );
#186 = DIRECTION( '', ( 1.00000000000000, 0.000000000000000, -1.63268091856640E-016 ) );
#187 = ORIENTED_EDGE( '', *, *, #214, .F. );
#188 = ORIENTED_EDGE( '', *, *, #229, .F. );
#189 = ORIENTED_EDGE( '', *, *, #225, .T. );
#190 = ORIENTED_EDGE( '', *, *, #230, .T. );
#191 = CARTESIAN_POINT( '', ( 42.5000000000000, -49.0000000000000, -42.5000000000000 ) );
#192 = DIRECTION( '', ( -1.00000000000000, 0.000000000000000, 0.000000000000000 ) );
#193 = DIRECTION( '', ( 0.000000000000000, 0.000000000000000, 1.00000000000000 ) );
#194 = ORIENTED_EDGE( '', *, *, #212, .F. );
#195 = ORIENTED_EDGE( '', *, *, #231, .F. );
#196 = ORIENTED_EDGE( '', *, *, #223, .T. );
#197 = ORIENTED_EDGE( '', *, *, #228, .T. );
#198 = CARTESIAN_POINT( '', ( -42.5000000000000, -49.0000000000000, 42.5000000000000 ) );
#199 = DIRECTION( '', ( 1.00000000000000, 0.000000000000000, 0.000000000000000 ) );
#200 = DIRECTION( '', ( 0.000000000000000, 0.000000000000000, -1.00000000000000 ) );
#201 = ORIENTED_EDGE( '', *, *, #215, .F. );
#202 = ORIENTED_EDGE( '', *, *, #230, .F. );
#203 = ORIENTED_EDGE( '', *, *, #224, .T. );
#204 = ORIENTED_EDGE( '', *, *, #231, .T. );
#205 = CARTESIAN_POINT( '', ( 42.5000000000000, -49.0000000000000, 42.5000000000000 ) );
#206 = DIRECTION( '', ( 1.63268091856640E-016, 0.000000000000000, -1.00000000000000 ) );
#207 = DIRECTION( '', ( -1.00000000000000, 0.000000000000000, -1.63268091856640E-016 ) );
#208 = EDGE_CURVE( '', #232, #233, #234, .T. );
#209 = EDGE_CURVE( '', #235, #233, #236, .T. );
#210 = EDGE_CURVE( '', #237, #235, #238, .T. );
#211 = EDGE_CURVE( '', #237, #232, #239, .T. );
#212 = EDGE_CURVE( '', #240, #241, #242, .T. );
#213 = EDGE_CURVE( '', #241, #243, #244, .T. );
#214 = EDGE_CURVE( '', #243, #245, #246, .T. );
#215 = EDGE_CURVE( '', #245, #240, #247, .T. );
#216 = EDGE_CURVE( '', #248, #232, #249, .T. );
#217 = EDGE_CURVE( '', #250, #248, #251, .T. );
#218 = EDGE_CURVE( '', #233, #250, #252, .T. );
#219 = EDGE_CURVE( '', #253, #250, #254, .T. );
#220 = EDGE_CURVE( '', #235, #253, #255, .T. );
#221 = EDGE_CURVE( '', #256, #248, #257, .T. );
#222 = EDGE_CURVE( '', #253, #256, #258, .T. );
#223 = EDGE_CURVE( '', #259, #260, #261, .T. );
#224 = EDGE_CURVE( '', #262, #259, #263, .T. );
#225 = EDGE_CURVE( '', #264, #262, #265, .T. );
#226 = EDGE_CURVE( '', #260, #264, #266, .T. );
#227 = EDGE_CURVE( '', #256, #237, #267, .T. );
#228 = EDGE_CURVE( '', #260, #241, #268, .T. );
#229 = EDGE_CURVE( '', #264, #243, #269, .T. );
#230 = EDGE_CURVE( '', #262, #245, #270, .T. );
#231 = EDGE_CURVE( '', #259, #240, #271, .T. );
#232 = VERTEX_POINT( '', #272 );
#233 = VERTEX_POINT( '', #273 );
#234 = LINE( '', #274, #275 );
#235 = VERTEX_POINT( '', #276 );
#236 = LINE( '', #277, #278 );
#237 = VERTEX_POINT( '', #279 );
#238 = LINE( '', #280, #281 );
#239 = LINE( '', #282, #283 );
#240 = VERTEX_POINT( '', #284 );
#241 = VERTEX_POINT( '', #285 );
#242 = LINE( '', #286, #287 );
#243 = VERTEX_POINT( '', #288 );
#244 = LINE( '', #289, #290 );
#245 = VERTEX_POINT( '', #291 );
#246 = LINE( '', #292, #293 );
#247 = LINE( '', #294, #295 );
#248 = VERTEX_POINT( '', #296 );
#249 = LINE( '', #297, #298 );
#250 = VERTEX_POINT( '', #299 );
#251 = LINE( '', #300, #301 );
#252 = LINE( '', #302, #303 );
#253 = VERTEX_POINT( '', #304 );
#254 = LINE( '', #305, #306 );
#255 = LINE( '', #307, #308 );
#256 = VERTEX_POINT( '', #309 );
#257 = LINE( '', #310, #311 );
#258 = LINE( '', #312, #313 );
#259 = VERTEX_POINT( '', #314 );
#260 = VERTEX_POINT( '', #315 );
#261 = LINE( '', #316, #317 );
#262 = VERTEX_POINT( '', #318 );
#263 = LINE( '', #319, #320 );
#264 = VERTEX_POINT( '', #321 );
#265 = LINE( '', #322, #323 );
#266 = LINE( '', #324, #325 );
#267 = LINE( '', #326, #327 );
#268 = LINE( '', #328, #329 );
#269 = LINE( '', #330, #331 );
#270 = LINE( '', #332, #333 );
#271 = LINE( '', #334, #335 );
#272 = CARTESIAN_POINT( '', ( -62.5000000000000, 49.0000000000000, 62.5000000000000 ) );
#273 = CARTESIAN_POINT( '', ( -62.5000000000000, 49.0000000000000, -62.5000000000000 ) );
#274 = CARTESIAN_POINT( '', ( -62.5000000000000, 49.0000000000000, 62.5000000000000 ) );
#275 = VECTOR( '', #336, 1000.00000000000 );
#276 = CARTESIAN_POINT( '', ( -62.5000000000000, -49.0000000000000, -62.5000000000000 ) );
#277 = CARTESIAN_POINT( '', ( -62.5000000000000, -49.0000000000000, -62.5000000000000 ) );
#278 = VECTOR( '', #337, 1000.00000000000 );
#279 = CARTESIAN_POINT( '', ( -62.5000000000000, -49.0000000000000, 62.5000000000000 ) );
#280 = CARTESIAN_POINT( '', ( -62.5000000000000, -49.0000000000000, 62.5000000000000 ) );
#281 = VECTOR( '', #338, 1000.00000000000 );
#282 = CARTESIAN_POINT( '', ( -62.5000000000000, -49.0000000000000, 62.5000000000000 ) );
#283 = VECTOR( '', #339, 1000.00000000000 );
#284 = CARTESIAN_POINT( '', ( -42.5000000000000, 49.0000000000000, 42.5000000000000 ) );
#285 = CARTESIAN_POINT( '', ( -42.5000000000000, 49.0000000000000, -42.5000000000000 ) );
#286 = CARTESIAN_POINT( '', ( -42.5000000000000, 49.0000000000000, 42.5000000000000 ) );
#287 = VECTOR( '', #340, 1000.00000000000 );
#288 = CARTESIAN_POINT( '', ( 42.5000000000000, 49.0000000000000, -42.5000000000000 ) );
#289 = CARTESIAN_POINT( '', ( -42.5000000000000, 49.0000000000000, -42.5000000000000 ) );
#290 = VECTOR( '', #341, 1000.00000000000 );
#291 = CARTESIAN_POINT( '', ( 42.5000000000000, 49.0000000000000, 42.5000000000000 ) );
#292 = CARTESIAN_POINT( '', ( 42.5000000000000, 49.0000000000000, -42.5000000000000 ) );
#293 = VECTOR( '', #342, 1000.00000000000 );
#294 = CARTESIAN_POINT( '', ( 42.5000000000000, 49.0000000000000, 42.5000000000000 ) );
#295 = VECTOR( '', #343, 1000.00000000000 );
#296 = CARTESIAN_POINT( '', ( 62.5000000000000, 49.0000000000000, 62.5000000000000 ) );
#297 = CARTESIAN_POINT( '', ( 62.5000000000000, 49.0000000000000, 62.5000000000000 ) );
#298 = VECTOR( '', #344, 1000.00000000000 );
#299 = CARTESIAN_POINT( '', ( 62.5000000000000, 49.0000000000000, -62.5000000000000 ) );
#300 = CARTESIAN_POINT( '', ( 62.5000000000000, 49.0000000000000, -62.5000000000000 ) );
#301 = VECTOR( '', #345, 1000.00000000000 );
#302 = CARTESIAN_POINT( '', ( -62.5000000000000, 49.0000000000000, -62.5000000000000 ) );
#303 = VECTOR( '', #346, 1000.00000000000 );
#304 = CARTESIAN_POINT( '', ( 62.5000000000000, -49.0000000000000, -62.5000000000000 ) );
#305 = CARTESIAN_POINT( '', ( 62.5000000000000, -49.0000000000000, -62.5000000000000 ) );
#306 = VECTOR( '', #347, 1000.00000000000 );
#307 = CARTESIAN_POINT( '', ( -62.5000000000000, -49.0000000000000, -62.5000000000000 ) );
#308 = VECTOR( '', #348, 1000.00000000000 );
#309 = CARTESIAN_POINT( '', ( 62.5000000000000, -49.0000000000000, 62.5000000000000 ) );
#310 = CARTESIAN_POINT( '', ( 62.5000000000000, -49.0000000000000, 62.5000000000000 ) );
#311 = VECTOR( '', #349, 1000.00000000000 );
#312 = CARTESIAN_POINT( '', ( 62.5000000000000, -49.0000000000000, -62.5000000000000 ) );
#313 = VECTOR( '', #350, 1000.00000000000 );
#314 = CARTESIAN_POINT( '', ( -42.5000000000000, -49.0000000000000, 42.5000000000000 ) );
#315 = CARTESIAN_POINT( '', ( -42.5000000000000, -49.0000000000000, -42.5000000000000 ) );
#316 = CARTESIAN_POINT( '', ( -42.5000000000000, -49.0000000000000, 42.5000000000000 ) );
#317 = VECTOR( '', #351, 1000.00000000000 );
#318 = CARTESIAN_POINT( '', ( 42.5000000000000, -49.0000000000000, 42.5000000000000 ) );
#319 = CARTESIAN_POINT( '', ( 42.5000000000000, -49.0000000000000, 42.5000000000000 ) );
#320 = VECTOR( '', #352, 1000.00000000000 );
#321 = CARTESIAN_POINT( '', ( 42.5000000000000, -49.0000000000000, -42.5000000000000 ) );
#322 = CARTESIAN_POINT( '', ( 42.5000000000000, -49.0000000000000, -42.5000000000000 ) );
#323 = VECTOR( '', #353, 1000.00000000000 );
#324 = CARTESIAN_POINT( '', ( -42.5000000000000, -49.0000000000000, -42.5000000000000 ) );
#325 = VECTOR( '', #354, 1000.00000000000 );
#326 = CARTESIAN_POINT( '', ( 62.5000000000000, -49.0000000000000, 62.5000000000000 ) );
#327 = VECTOR( '', #355, 1000.00000000000 );
#328 = CARTESIAN_POINT( '', ( -42.5000000000000, -49.0000000000000, -42.5000000000000 ) );
#329 = VECTOR( '', #356, 1000.00000000000 );
#330 = CARTESIAN_POINT( '', ( 42.5000000000000, -49.0000000000000, -42.5000000000000 ) );
#331 = VECTOR( '', #357, 1000.00000000000 );
#332 = CARTESIAN_POINT( '', ( 42.5000000000000, -49.0000000000000, 42.5000000000000 ) );
#333 = VECTOR( '', #358, 1000.00000000000 );
#334 = CARTESIAN_POINT( '', ( -42.5000000000000, -49.0000000000000, 42.5000000000000 ) );
#335 = VECTOR( '', #359, 1000.00000000000 );
#336 = DIRECTION( '', ( -1.11022302462516E-016, 0.000000000000000, -1.00000000000000 ) );
#337 = DIRECTION( '', ( 0.000000000000000, 1.00000000000000, 0.000000000000000 ) );
#338 = DIRECTION( '', ( -1.11022302462516E-016, 0.000000000000000, -1.00000000000000 ) );
#339 = DIRECTION( '', ( 0.000000000000000, 1.00000000000000, 0.000000000000000 ) );
#340 = DIRECTION( '', ( 0.000000000000000, 0.000000000000000, -1.00000000000000 ) );
#341 = DIRECTION( '', ( 1.00000000000000, 0.000000000000000, -1.63268091856640E-016 ) );
#342 = DIRECTION( '', ( 0.000000000000000, 0.000000000000000, 1.00000000000000 ) );
#343 = DIRECTION( '', ( -1.00000000000000, 0.000000000000000, -1.63268091856640E-016 ) );
#344 = DIRECTION( '', ( -1.00000000000000, 0.000000000000000, -1.11022302462516E-016 ) );
#345 = DIRECTION( '', ( -1.11022302462516E-016, 0.000000000000000, 1.00000000000000 ) );
#346 = DIRECTION( '', ( 1.00000000000000, 0.000000000000000, 1.11022302462516E-016 ) );
#347 = DIRECTION( '', ( 0.000000000000000, 1.00000000000000, 0.000000000000000 ) );
#348 = DIRECTION( '', ( 1.00000000000000, 0.000000000000000, 1.11022302462516E-016 ) );
#349 = DIRECTION( '', ( 0.000000000000000, 1.00000000000000, 0.000000000000000 ) );
#350 = DIRECTION( '', ( -1.11022302462516E-016, 0.000000000000000, 1.00000000000000 ) );
#351 = DIRECTION( '', ( 0.000000000000000, 0.000000000000000, -1.00000000000000 ) );
#352 = DIRECTION( '', ( -1.00000000000000, 0.000000000000000, -1.63268091856640E-016 ) );
#353 = DIRECTION( '', ( 0.000000000000000, 0.000000000000000, 1.00000000000000 ) );
#354 = DIRECTION( '', ( 1.00000000000000, 0.000000000000000, -1.63268091856640E-016 ) );
#355 = DIRECTION( '', ( -1.00000000000000, 0.000000000000000, -1.11022302462516E-016 ) );
#356 = DIRECTION( '', ( 0.000000000000000, 1.00000000000000, 0.000000000000000 ) );
#357 = DIRECTION( '', ( 0.000000000000000, 1.00000000000000, 0.000000000000000 ) );
#358 = DIRECTION( '', ( 0.000000000000000, 1.00000000000000, 0.000000000000000 ) );
#359 = DIRECTION( '', ( 0.000000000000000, 1.00000000000000, 0.000000000000000 ) );
ENDSEC;
END-ISO-10303-21;
