ISO-10303-21;
HEADER;
FILE_DESCRIPTION( ( 'Unknown' ), '1' );
FILE_NAME( 's:/LEAVE 2D&3D CAD/LEAVE 3D CAD (STEP)/Metric/BC-3D/BC06-3D/BC06-200160-400.stp', 'Unknown', ( 'Unknown' ), ( 'Unknown' ), 'XStep 1.0', 'Unknown', '  ' );
FILE_SCHEMA( ( 'CONFIG_CONTROL_DESIGN' ) );
ENDSEC;
DATA;
#1 = DESIGN_CONTEXT( '', #27, 'design' );
#2 = APPLICATION_PROTOCOL_DEFINITION( 'INTERNATIONAL STANDARD', 'config_control_design', 1994, #27 );
#3 = PRODUCT_CATEGORY_RELATIONSHIP( 'NONE', 'NONE', #28, #29 );
#4 = DATE_AND_TIME( #30, #31 );
#5 = DATE_TIME_ROLE( 'creation_date' );
#6 = DATE_TIME_ROLE( 'classification_date' );
#7 = PERSON_AND_ORGANIZATION_ROLE( 'creator' );
#8 = PERSON_AND_ORGANIZATION_ROLE( 'design_supplier' );
#9 = PERSON_AND_ORGANIZATION_ROLE( 'classification_officer' );
#10 = PERSON_AND_ORGANIZATION_ROLE( 'design_owner' );
#11 = APPROVAL_PERSON_ORGANIZATION( #32, #33, #34 );
#12 = APPROVAL_DATE_TIME( #4, #33 );
#13 = CC_DESIGN_APPROVAL( #33, ( #35, #36, #37 ) );
#14 = CC_DESIGN_DATE_AND_TIME_ASSIGNMENT( #4, #5, ( #37 ) );
#15 = CC_DESIGN_DATE_AND_TIME_ASSIGNMENT( #4, #6, ( #35 ) );
#16 = CC_DESIGN_PERSON_AND_ORGANIZATION_ASSIGNMENT( #32, #10, ( #38 ) );
#17 = CC_DESIGN_PERSON_AND_ORGANIZATION_ASSIGNMENT( #32, #7, ( #37 ) );
#18 = CC_DESIGN_PERSON_AND_ORGANIZATION_ASSIGNMENT( #32, #7, ( #36 ) );
#19 = CC_DESIGN_PERSON_AND_ORGANIZATION_ASSIGNMENT( #32, #8, ( #36 ) );
#20 = CC_DESIGN_SECURITY_CLASSIFICATION( #35, ( #36 ) );
#21 = CC_DESIGN_PERSON_AND_ORGANIZATION_ASSIGNMENT( #32, #9, ( #35 ) );
#22 = SHAPE_DEFINITION_REPRESENTATION( #39, #40 );
#23 =  ( GEOMETRIC_REPRESENTATION_CONTEXT( 3 )GLOBAL_UNCERTAINTY_ASSIGNED_CONTEXT( ( #43 ) )GLOBAL_UNIT_ASSIGNED_CONTEXT( ( #45, #46, #47 ) )REPRESENTATION_CONTEXT( 'NONE', 'WORKSPACE' ) );
#27 = APPLICATION_CONTEXT( 'CONFIGURATION CONTROLLED 3D DESIGNS OF MECHANICAL PARTS AND ASSEMBLIES' );
#28 = PRODUCT_CATEGORY( 'part', 'NONE' );
#29 = PRODUCT_RELATED_PRODUCT_CATEGORY( 'detail', ' ', ( #38 ) );
#30 = CALENDAR_DATE( 2007, 24, 11 );
#31 = LOCAL_TIME( 13, 13, 30.0000000000000, #49 );
#32 = PERSON_AND_ORGANIZATION( #50, #51 );
#33 = APPROVAL( #52, 'SOLID MODEL' );
#34 = APPROVAL_ROLE( 'APPROVED' );
#35 = SECURITY_CLASSIFICATION( '', '', #53 );
#36 = PRODUCT_DEFINITION_FORMATION_WITH_SPECIFIED_SOURCE( ' ', 'NONE', #38, .NOT_KNOWN. );
#37 = PRODUCT_DEFINITION( 'NONE', 'NONE', #36, #1 );
#38 = PRODUCT( '1', '1', 'PART-1-DESC', ( #54 ) );
#39 = PRODUCT_DEFINITION_SHAPE( 'NONE', 'NONE', #37 );
#40 = ADVANCED_BREP_SHAPE_REPRESENTATION( '1', ( #55, #56 ), #23 );
#43 = UNCERTAINTY_MEASURE_WITH_UNIT( LENGTH_MEASURE( 0.00100000000000000 ), #45, '', '' );
#45 =  ( CONVERSION_BASED_UNIT( 'MILLIMETRE', #59 )LENGTH_UNIT(  )NAMED_UNIT( #62 ) );
#46 =  ( NAMED_UNIT( #64 )PLANE_ANGLE_UNIT(  )SI_UNIT( $, .RADIAN. ) );
#47 =  ( NAMED_UNIT( #64 )SOLID_ANGLE_UNIT(  )SI_UNIT( $, .STERADIAN. ) );
#49 = COORDINATED_UNIVERSAL_TIME_OFFSET( 8, 0, .AHEAD. );
#50 = PERSON( '', 'UNSPECIFIED', $, $, $, $ );
#51 = ORGANIZATION( 'UNSPECIFIED', 'UNSPECIFIED', 'UNSPECIFIED' );
#52 = APPROVAL_STATUS( 'approved' );
#53 = SECURITY_CLASSIFICATION_LEVEL( 'unclassified' );
#54 = MECHANICAL_CONTEXT( '', #27, 'mechanical' );
#55 = MANIFOLD_SOLID_BREP( '1', #70 );
#56 = AXIS2_PLACEMENT_3D( '', #71, #72, #73 );
#59 = LENGTH_MEASURE_WITH_UNIT( LENGTH_MEASURE( 1.00000000000000 ), #74 );
#62 = DIMENSIONAL_EXPONENTS( 1.00000000000000, 0.000000000000000, 0.000000000000000, 0.000000000000000, 0.000000000000000, 0.000000000000000, 0.000000000000000 );
#64 = DIMENSIONAL_EXPONENTS( 0.000000000000000, 0.000000000000000, 0.000000000000000, 0.000000000000000, 0.000000000000000, 0.000000000000000, 0.000000000000000 );
#70 = CLOSED_SHELL( '', ( #75, #76, #77, #78, #79, #80, #81, #82, #83 ) );
#71 = CARTESIAN_POINT( '', ( 0.000000000000000, 0.000000000000000, 0.000000000000000 ) );
#72 = DIRECTION( '', ( 0.000000000000000, 0.000000000000000, 1.00000000000000 ) );
#73 = DIRECTION( '', ( 1.00000000000000, 0.000000000000000, 0.000000000000000 ) );
#74 =  ( NAMED_UNIT( #62 )LENGTH_UNIT(  )SI_UNIT( .MILLI., .METRE. ) );
#75 = ADVANCED_FACE( '', ( #85 ), #86, .T. );
#76 = ADVANCED_FACE( '', ( #87 ), #88, .F. );
#77 = ADVANCED_FACE( '', ( #89 ), #90, .T. );
#78 = ADVANCED_FACE( '', ( #91 ), #92, .F. );
#79 = ADVANCED_FACE( '', ( #93 ), #94, .T. );
#80 = ADVANCED_FACE( '', ( #95 ), #96, .T. );
#81 = ADVANCED_FACE( '', ( #97 ), #98, .T. );
#82 = ADVANCED_FACE( '', ( #99 ), #100, .T. );
#83 = ADVANCED_FACE( '', ( #101 ), #102, .T. );
#85 = FACE_OUTER_BOUND( '', #103, .T. );
#86 = PLANE( '', #104 );
#87 = FACE_OUTER_BOUND( '', #105, .T. );
#88 = CYLINDRICAL_SURFACE( '', #106, 15.0000000000000 );
#89 = FACE_OUTER_BOUND( '', #107, .T. );
#90 = PLANE( '', #108 );
#91 = FACE_OUTER_BOUND( '', #109, .T. );
#92 = PLANE( '', #110 );
#93 = FACE_OUTER_BOUND( '', #111, .T. );
#94 = PLANE( '', #112 );
#95 = FACE_OUTER_BOUND( '', #113, .T. );
#96 = PLANE( '', #114 );
#97 = FACE_OUTER_BOUND( '', #115, .T. );
#98 = PLANE( '', #116 );
#99 = FACE_OUTER_BOUND( '', #117, .T. );
#100 = PLANE( '', #118 );
#101 = FACE_OUTER_BOUND( '', #119, .T. );
#102 = PLANE( '', #120 );
#103 = EDGE_LOOP( '', ( #121, #122, #123, #124 ) );
#104 = AXIS2_PLACEMENT_3D( '', #125, #126, #127 );
#105 = EDGE_LOOP( '', ( #128, #129, #130, #131 ) );
#106 = AXIS2_PLACEMENT_3D( '', #132, #133, #134 );
#107 = EDGE_LOOP( '', ( #135, #136, #137, #138 ) );
#108 = AXIS2_PLACEMENT_3D( '', #139, #140, #141 );
#109 = EDGE_LOOP( '', ( #142, #143, #144, #145, #146, #147, #148 ) );
#110 = AXIS2_PLACEMENT_3D( '', #149, #150, #151 );
#111 = EDGE_LOOP( '', ( #152, #153, #154, #155 ) );
#112 = AXIS2_PLACEMENT_3D( '', #156, #157, #158 );
#113 = EDGE_LOOP( '', ( #159, #160, #161, #162 ) );
#114 = AXIS2_PLACEMENT_3D( '', #163, #164, #165 );
#115 = EDGE_LOOP( '', ( #166, #167, #168, #169 ) );
#116 = AXIS2_PLACEMENT_3D( '', #170, #171, #172 );
#117 = EDGE_LOOP( '', ( #173, #174, #175, #176, #177, #178, #179 ) );
#118 = AXIS2_PLACEMENT_3D( '', #180, #181, #182 );
#119 = EDGE_LOOP( '', ( #183, #184, #185, #186 ) );
#120 = AXIS2_PLACEMENT_3D( '', #187, #188, #189 );
#121 = ORIENTED_EDGE( '', *, *, #190, .F. );
#122 = ORIENTED_EDGE( '', *, *, #191, .F. );
#123 = ORIENTED_EDGE( '', *, *, #192, .T. );
#124 = ORIENTED_EDGE( '', *, *, #193, .T. );
#125 = CARTESIAN_POINT( '', ( 200.000000000000, 48.0000000000000, 100.000000000000 ) );
#126 = DIRECTION( '', ( 0.000000000000000, 1.73472347597681E-015, 1.00000000000000 ) );
#127 = DIRECTION( '', ( 0.000000000000000, -1.00000000000000, 1.73472347597681E-015 ) );
#128 = ORIENTED_EDGE( '', *, *, #194, .F. );
#129 = ORIENTED_EDGE( '', *, *, #195, .F. );
#130 = ORIENTED_EDGE( '', *, *, #196, .F. );
#131 = ORIENTED_EDGE( '', *, *, #197, .F. );
#132 = CARTESIAN_POINT( '', ( 200.000000000000, 33.0000000000000, -53.0000000000000 ) );
#133 = DIRECTION( '', ( -1.00000000000000, -0.000000000000000, -0.000000000000000 ) );
#134 = DIRECTION( '', ( 0.000000000000000, 0.000000000000000, -1.00000000000000 ) );
#135 = ORIENTED_EDGE( '', *, *, #198, .F. );
#136 = ORIENTED_EDGE( '', *, *, #193, .F. );
#137 = ORIENTED_EDGE( '', *, *, #199, .T. );
#138 = ORIENTED_EDGE( '', *, *, #200, .T. );
#139 = CARTESIAN_POINT( '', ( 200.000000000000, 80.0000000000000, 100.000000000000 ) );
#140 = DIRECTION( '', ( 0.000000000000000, 1.00000000000000, 6.93889390390723E-017 ) );
#141 = DIRECTION( '', ( 0.000000000000000, -6.93889390390723E-017, 1.00000000000000 ) );
#142 = ORIENTED_EDGE( '', *, *, #190, .T. );
#143 = ORIENTED_EDGE( '', *, *, #198, .T. );
#144 = ORIENTED_EDGE( '', *, *, #201, .T. );
#145 = ORIENTED_EDGE( '', *, *, #202, .T. );
#146 = ORIENTED_EDGE( '', *, *, #203, .T. );
#147 = ORIENTED_EDGE( '', *, *, #196, .T. );
#148 = ORIENTED_EDGE( '', *, *, #204, .T. );
#149 = CARTESIAN_POINT( '', ( -200.000000000000, -80.0000000000000, 100.000000000000 ) );
#150 = DIRECTION( '', ( 1.00000000000000, -6.12303176911189E-017, 0.000000000000000 ) );
#151 = DIRECTION( '', ( 6.12303176911189E-017, 1.00000000000000, 0.000000000000000 ) );
#152 = ORIENTED_EDGE( '', *, *, #205, .T. );
#153 = ORIENTED_EDGE( '', *, *, #197, .T. );
#154 = ORIENTED_EDGE( '', *, *, #203, .F. );
#155 = ORIENTED_EDGE( '', *, *, #206, .F. );
#156 = CARTESIAN_POINT( '', ( 200.000000000000, -80.0000000000000, -68.0000000000000 ) );
#157 = DIRECTION( '', ( 0.000000000000000, 0.000000000000000, 1.00000000000000 ) );
#158 = DIRECTION( '', ( 1.00000000000000, 0.000000000000000, 0.000000000000000 ) );
#159 = ORIENTED_EDGE( '', *, *, #201, .F. );
#160 = ORIENTED_EDGE( '', *, *, #200, .F. );
#161 = ORIENTED_EDGE( '', *, *, #207, .T. );
#162 = ORIENTED_EDGE( '', *, *, #208, .T. );
#163 = CARTESIAN_POINT( '', ( 200.000000000000, 80.0000000000000, -100.000000000000 ) );
#164 = DIRECTION( '', ( 0.000000000000000, 2.60208521396521E-016, -1.00000000000000 ) );
#165 = DIRECTION( '', ( 0.000000000000000, 1.00000000000000, 2.60208521396521E-016 ) );
#166 = ORIENTED_EDGE( '', *, *, #202, .F. );
#167 = ORIENTED_EDGE( '', *, *, #208, .F. );
#168 = ORIENTED_EDGE( '', *, *, #209, .T. );
#169 = ORIENTED_EDGE( '', *, *, #206, .T. );
#170 = CARTESIAN_POINT( '', ( 200.000000000000, -80.0000000000000, -100.000000000000 ) );
#171 = DIRECTION( '', ( 0.000000000000000, -1.00000000000000, 0.000000000000000 ) );
#172 = DIRECTION( '', ( 0.000000000000000, 0.000000000000000, -1.00000000000000 ) );
#173 = ORIENTED_EDGE( '', *, *, #192, .F. );
#174 = ORIENTED_EDGE( '', *, *, #210, .F. );
#175 = ORIENTED_EDGE( '', *, *, #194, .T. );
#176 = ORIENTED_EDGE( '', *, *, #205, .F. );
#177 = ORIENTED_EDGE( '', *, *, #209, .F. );
#178 = ORIENTED_EDGE( '', *, *, #207, .F. );
#179 = ORIENTED_EDGE( '', *, *, #199, .F. );
#180 = CARTESIAN_POINT( '', ( 200.000000000000, -80.0000000000000, 100.000000000000 ) );
#181 = DIRECTION( '', ( 1.00000000000000, -6.12303176911189E-017, 0.000000000000000 ) );
#182 = DIRECTION( '', ( 6.12303176911189E-017, 1.00000000000000, 0.000000000000000 ) );
#183 = ORIENTED_EDGE( '', *, *, #204, .F. );
#184 = ORIENTED_EDGE( '', *, *, #195, .T. );
#185 = ORIENTED_EDGE( '', *, *, #210, .T. );
#186 = ORIENTED_EDGE( '', *, *, #191, .T. );
#187 = CARTESIAN_POINT( '', ( 200.000000000000, 48.0000000000000, -68.0000000000000 ) );
#188 = DIRECTION( '', ( 0.000000000000000, -1.00000000000000, -8.26058798084193E-017 ) );
#189 = DIRECTION( '', ( 0.000000000000000, 8.26058798084193E-017, -1.00000000000000 ) );
#190 = EDGE_CURVE( '', #211, #212, #213, .T. );
#191 = EDGE_CURVE( '', #214, #211, #215, .T. );
#192 = EDGE_CURVE( '', #214, #216, #217, .T. );
#193 = EDGE_CURVE( '', #216, #212, #218, .T. );
#194 = EDGE_CURVE( '', #219, #220, #221, .F. );
#195 = EDGE_CURVE( '', #222, #219, #223, .F. );
#196 = EDGE_CURVE( '', #224, #222, #225, .T. );
#197 = EDGE_CURVE( '', #220, #224, #226, .T. );
#198 = EDGE_CURVE( '', #212, #227, #228, .T. );
#199 = EDGE_CURVE( '', #216, #229, #230, .T. );
#200 = EDGE_CURVE( '', #229, #227, #231, .T. );
#201 = EDGE_CURVE( '', #227, #232, #233, .T. );
#202 = EDGE_CURVE( '', #232, #234, #235, .T. );
#203 = EDGE_CURVE( '', #234, #224, #236, .T. );
#204 = EDGE_CURVE( '', #222, #211, #237, .T. );
#205 = EDGE_CURVE( '', #238, #220, #239, .T. );
#206 = EDGE_CURVE( '', #238, #234, #240, .T. );
#207 = EDGE_CURVE( '', #229, #241, #242, .T. );
#208 = EDGE_CURVE( '', #241, #232, #243, .T. );
#209 = EDGE_CURVE( '', #241, #238, #244, .T. );
#210 = EDGE_CURVE( '', #219, #214, #245, .T. );
#211 = VERTEX_POINT( '', #246 );
#212 = VERTEX_POINT( '', #247 );
#213 = LINE( '', #248, #249 );
#214 = VERTEX_POINT( '', #250 );
#215 = LINE( '', #251, #252 );
#216 = VERTEX_POINT( '', #253 );
#217 = LINE( '', #254, #255 );
#218 = LINE( '', #256, #257 );
#219 = VERTEX_POINT( '', #258 );
#220 = VERTEX_POINT( '', #259 );
#221 = CIRCLE( '', #260, 15.0000000000000 );
#222 = VERTEX_POINT( '', #261 );
#223 = LINE( '', #262, #263 );
#224 = VERTEX_POINT( '', #264 );
#225 = CIRCLE( '', #265, 15.0000000000000 );
#226 = LINE( '', #266, #267 );
#227 = VERTEX_POINT( '', #268 );
#228 = LINE( '', #269, #270 );
#229 = VERTEX_POINT( '', #271 );
#230 = LINE( '', #272, #273 );
#231 = LINE( '', #274, #275 );
#232 = VERTEX_POINT( '', #276 );
#233 = LINE( '', #277, #278 );
#234 = VERTEX_POINT( '', #279 );
#235 = LINE( '', #280, #281 );
#236 = LINE( '', #282, #283 );
#237 = LINE( '', #284, #285 );
#238 = VERTEX_POINT( '', #286 );
#239 = LINE( '', #287, #288 );
#240 = LINE( '', #289, #290 );
#241 = VERTEX_POINT( '', #291 );
#242 = LINE( '', #292, #293 );
#243 = LINE( '', #294, #295 );
#244 = LINE( '', #296, #297 );
#245 = LINE( '', #298, #299 );
#246 = CARTESIAN_POINT( '', ( -200.000000000000, 48.0000000000000, 100.000000000000 ) );
#247 = CARTESIAN_POINT( '', ( -200.000000000000, 80.0000000000000, 100.000000000000 ) );
#248 = CARTESIAN_POINT( '', ( -200.000000000000, 48.0000000000000, 100.000000000000 ) );
#249 = VECTOR( '', #300, 1000.00000000000 );
#250 = CARTESIAN_POINT( '', ( 200.000000000000, 48.0000000000000, 100.000000000000 ) );
#251 = CARTESIAN_POINT( '', ( 200.000000000000, 48.0000000000000, 100.000000000000 ) );
#252 = VECTOR( '', #301, 1000.00000000000 );
#253 = CARTESIAN_POINT( '', ( 200.000000000000, 80.0000000000000, 100.000000000000 ) );
#254 = CARTESIAN_POINT( '', ( 200.000000000000, 48.0000000000000, 100.000000000000 ) );
#255 = VECTOR( '', #302, 1000.00000000000 );
#256 = CARTESIAN_POINT( '', ( 200.000000000000, 80.0000000000000, 100.000000000000 ) );
#257 = VECTOR( '', #303, 1000.00000000000 );
#258 = CARTESIAN_POINT( '', ( 200.000000000000, 48.0000000000000, -53.0000000000000 ) );
#259 = CARTESIAN_POINT( '', ( 200.000000000000, 33.0000000000000, -68.0000000000000 ) );
#260 = AXIS2_PLACEMENT_3D( '', #304, #305, #306 );
#261 = CARTESIAN_POINT( '', ( -200.000000000000, 48.0000000000000, -53.0000000000000 ) );
#262 = CARTESIAN_POINT( '', ( 200.000000000000, 48.0000000000000, -53.0000000000000 ) );
#263 = VECTOR( '', #307, 1000.00000000000 );
#264 = CARTESIAN_POINT( '', ( -200.000000000000, 33.0000000000000, -68.0000000000000 ) );
#265 = AXIS2_PLACEMENT_3D( '', #308, #309, #310 );
#266 = CARTESIAN_POINT( '', ( -200.000000000000, 33.0000000000000, -68.0000000000000 ) );
#267 = VECTOR( '', #311, 1000.00000000000 );
#268 = CARTESIAN_POINT( '', ( -200.000000000000, 80.0000000000000, -100.000000000000 ) );
#269 = CARTESIAN_POINT( '', ( -200.000000000000, 80.0000000000000, 100.000000000000 ) );
#270 = VECTOR( '', #312, 1000.00000000000 );
#271 = CARTESIAN_POINT( '', ( 200.000000000000, 80.0000000000000, -100.000000000000 ) );
#272 = CARTESIAN_POINT( '', ( 200.000000000000, 80.0000000000000, 100.000000000000 ) );
#273 = VECTOR( '', #313, 1000.00000000000 );
#274 = CARTESIAN_POINT( '', ( 200.000000000000, 80.0000000000000, -100.000000000000 ) );
#275 = VECTOR( '', #314, 1000.00000000000 );
#276 = CARTESIAN_POINT( '', ( -200.000000000000, -80.0000000000000, -100.000000000000 ) );
#277 = CARTESIAN_POINT( '', ( -200.000000000000, 80.0000000000000, -100.000000000000 ) );
#278 = VECTOR( '', #315, 1000.00000000000 );
#279 = CARTESIAN_POINT( '', ( -200.000000000000, -80.0000000000000, -68.0000000000000 ) );
#280 = CARTESIAN_POINT( '', ( -200.000000000000, -80.0000000000000, -100.000000000000 ) );
#281 = VECTOR( '', #316, 1000.00000000000 );
#282 = CARTESIAN_POINT( '', ( -200.000000000000, -80.0000000000000, -68.0000000000000 ) );
#283 = VECTOR( '', #317, 1000.00000000000 );
#284 = CARTESIAN_POINT( '', ( -200.000000000000, 48.0000000000000, -68.0000000000000 ) );
#285 = VECTOR( '', #318, 1000.00000000000 );
#286 = CARTESIAN_POINT( '', ( 200.000000000000, -80.0000000000000, -68.0000000000000 ) );
#287 = CARTESIAN_POINT( '', ( 200.000000000000, -80.0000000000000, -68.0000000000000 ) );
#288 = VECTOR( '', #319, 1000.00000000000 );
#289 = CARTESIAN_POINT( '', ( 200.000000000000, -80.0000000000000, -68.0000000000000 ) );
#290 = VECTOR( '', #320, 1000.00000000000 );
#291 = CARTESIAN_POINT( '', ( 200.000000000000, -80.0000000000000, -100.000000000000 ) );
#292 = CARTESIAN_POINT( '', ( 200.000000000000, 80.0000000000000, -100.000000000000 ) );
#293 = VECTOR( '', #321, 1000.00000000000 );
#294 = CARTESIAN_POINT( '', ( 200.000000000000, -80.0000000000000, -100.000000000000 ) );
#295 = VECTOR( '', #322, 1000.00000000000 );
#296 = CARTESIAN_POINT( '', ( 200.000000000000, -80.0000000000000, -100.000000000000 ) );
#297 = VECTOR( '', #323, 1000.00000000000 );
#298 = CARTESIAN_POINT( '', ( 200.000000000000, 48.0000000000000, -68.0000000000000 ) );
#299 = VECTOR( '', #324, 1000.00000000000 );
#300 = DIRECTION( '', ( 6.12303176911189E-017, 1.00000000000000, -1.73472347597681E-015 ) );
#301 = DIRECTION( '', ( -1.00000000000000, 0.000000000000000, 0.000000000000000 ) );
#302 = DIRECTION( '', ( 6.12303176911189E-017, 1.00000000000000, -1.73472347597681E-015 ) );
#303 = DIRECTION( '', ( -1.00000000000000, 0.000000000000000, 0.000000000000000 ) );
#304 = CARTESIAN_POINT( '', ( 200.000000000000, 33.0000000000000, -53.0000000000000 ) );
#305 = DIRECTION( '', ( 1.00000000000000, -6.12303176911189E-017, 0.000000000000000 ) );
#306 = DIRECTION( '', ( 6.12303176911189E-017, 1.00000000000000, 0.000000000000000 ) );
#307 = DIRECTION( '', ( -1.00000000000000, 0.000000000000000, 0.000000000000000 ) );
#308 = CARTESIAN_POINT( '', ( -200.000000000000, 33.0000000000000, -53.0000000000000 ) );
#309 = DIRECTION( '', ( 1.00000000000000, -6.12303176911189E-017, 0.000000000000000 ) );
#310 = DIRECTION( '', ( 6.12303176911189E-017, 1.00000000000000, 0.000000000000000 ) );
#311 = DIRECTION( '', ( -1.00000000000000, 0.000000000000000, 0.000000000000000 ) );
#312 = DIRECTION( '', ( 4.24870678161207E-033, 6.93889390390723E-017, -1.00000000000000 ) );
#313 = DIRECTION( '', ( 4.24870678161207E-033, 6.93889390390723E-017, -1.00000000000000 ) );
#314 = DIRECTION( '', ( -1.00000000000000, 0.000000000000000, 0.000000000000000 ) );
#315 = DIRECTION( '', ( -6.12303176911189E-017, -1.00000000000000, -2.60208521396521E-016 ) );
#316 = DIRECTION( '', ( 0.000000000000000, 0.000000000000000, 1.00000000000000 ) );
#317 = DIRECTION( '', ( 6.12303176911189E-017, 1.00000000000000, 0.000000000000000 ) );
#318 = DIRECTION( '', ( -5.05798426382390E-033, -8.26058798084193E-017, 1.00000000000000 ) );
#319 = DIRECTION( '', ( 6.12303176911189E-017, 1.00000000000000, 0.000000000000000 ) );
#320 = DIRECTION( '', ( -1.00000000000000, 0.000000000000000, 0.000000000000000 ) );
#321 = DIRECTION( '', ( -6.12303176911189E-017, -1.00000000000000, -2.60208521396521E-016 ) );
#322 = DIRECTION( '', ( -1.00000000000000, 0.000000000000000, 0.000000000000000 ) );
#323 = DIRECTION( '', ( 0.000000000000000, 0.000000000000000, 1.00000000000000 ) );
#324 = DIRECTION( '', ( -5.05798426382390E-033, -8.26058798084193E-017, 1.00000000000000 ) );
ENDSEC;
END-ISO-10303-21;
