ISO-10303-21;
HEADER;
FILE_DESCRIPTION( ( 'Unknown' ), '1' );
FILE_NAME( 'f:/¼È¦s/CP/CP04-3D/CP04-12075.stp', 'Unknown', ( 'Unknown' ), ( 'Unknown' ), 'XStep 1.0', 'Unknown', '  ' );
FILE_SCHEMA( ( 'CONFIG_CONTROL_DESIGN' ) );
ENDSEC;
DATA;
#1 = DESIGN_CONTEXT( '', #27, 'design' );
#2 = APPLICATION_PROTOCOL_DEFINITION( 'INTERNATIONAL STANDARD', 'config_control_design', 1994, #27 );
#3 = PRODUCT_CATEGORY_RELATIONSHIP( 'NONE', 'NONE', #28, #29 );
#4 = DATE_AND_TIME( #30, #31 );
#5 = DATE_TIME_ROLE( 'creation_date' );
#6 = DATE_TIME_ROLE( 'classification_date' );
#7 = PERSON_AND_ORGANIZATION_ROLE( 'creator' );
#8 = PERSON_AND_ORGANIZATION_ROLE( 'design_supplier' );
#9 = PERSON_AND_ORGANIZATION_ROLE( 'classification_officer' );
#10 = PERSON_AND_ORGANIZATION_ROLE( 'design_owner' );
#11 = APPROVAL_PERSON_ORGANIZATION( #32, #33, #34 );
#12 = APPROVAL_DATE_TIME( #4, #33 );
#13 = CC_DESIGN_APPROVAL( #33, ( #35, #36, #37 ) );
#14 = CC_DESIGN_DATE_AND_TIME_ASSIGNMENT( #4, #5, ( #37 ) );
#15 = CC_DESIGN_DATE_AND_TIME_ASSIGNMENT( #4, #6, ( #35 ) );
#16 = CC_DESIGN_PERSON_AND_ORGANIZATION_ASSIGNMENT( #32, #10, ( #38 ) );
#17 = CC_DESIGN_PERSON_AND_ORGANIZATION_ASSIGNMENT( #32, #7, ( #37 ) );
#18 = CC_DESIGN_PERSON_AND_ORGANIZATION_ASSIGNMENT( #32, #7, ( #36 ) );
#19 = CC_DESIGN_PERSON_AND_ORGANIZATION_ASSIGNMENT( #32, #8, ( #36 ) );
#20 = CC_DESIGN_SECURITY_CLASSIFICATION( #35, ( #36 ) );
#21 = CC_DESIGN_PERSON_AND_ORGANIZATION_ASSIGNMENT( #32, #9, ( #35 ) );
#22 = SHAPE_DEFINITION_REPRESENTATION( #39, #40 );
#23 =  ( GEOMETRIC_REPRESENTATION_CONTEXT( 3 )GLOBAL_UNCERTAINTY_ASSIGNED_CONTEXT( ( #43 ) )GLOBAL_UNIT_ASSIGNED_CONTEXT( ( #45, #46, #47 ) )REPRESENTATION_CONTEXT( 'NONE', 'WORKSPACE' ) );
#27 = APPLICATION_CONTEXT( 'CONFIGURATION CONTROLLED 3D DESIGNS OF MECHANICAL PARTS AND ASSEMBLIES' );
#28 = PRODUCT_CATEGORY( 'part', 'NONE' );
#29 = PRODUCT_RELATED_PRODUCT_CATEGORY( 'detail', ' ', ( #38 ) );
#30 = CALENDAR_DATE( 2009, 9, 10 );
#31 = LOCAL_TIME( 9, 36, 24.0000000000000, #49 );
#32 = PERSON_AND_ORGANIZATION( #50, #51 );
#33 = APPROVAL( #52, 'SOLID MODEL' );
#34 = APPROVAL_ROLE( 'APPROVED' );
#35 = SECURITY_CLASSIFICATION( '', '', #53 );
#36 = PRODUCT_DEFINITION_FORMATION_WITH_SPECIFIED_SOURCE( ' ', 'NONE', #38, .NOT_KNOWN. );
#37 = PRODUCT_DEFINITION( 'NONE', 'NONE', #36, #1 );
#38 = PRODUCT( '1', '1', 'PART-1-DESC', ( #54 ) );
#39 = PRODUCT_DEFINITION_SHAPE( 'NONE', 'NONE', #37 );
#40 = ADVANCED_BREP_SHAPE_REPRESENTATION( '1', ( #55, #56 ), #23 );
#43 = UNCERTAINTY_MEASURE_WITH_UNIT( LENGTH_MEASURE( 0.00100000000000000 ), #45, '', '' );
#45 =  ( CONVERSION_BASED_UNIT( 'MILLIMETRE', #59 )LENGTH_UNIT(  )NAMED_UNIT( #62 ) );
#46 =  ( NAMED_UNIT( #64 )PLANE_ANGLE_UNIT(  )SI_UNIT( $, .RADIAN. ) );
#47 =  ( NAMED_UNIT( #64 )SOLID_ANGLE_UNIT(  )SI_UNIT( $, .STERADIAN. ) );
#49 = COORDINATED_UNIVERSAL_TIME_OFFSET( 8, 0, .AHEAD. );
#50 = PERSON( '', 'UNSPECIFIED', $, $, $, $ );
#51 = ORGANIZATION( 'UNSPECIFIED', 'UNSPECIFIED', 'UNSPECIFIED' );
#52 = APPROVAL_STATUS( 'approved' );
#53 = SECURITY_CLASSIFICATION_LEVEL( 'unclassified' );
#54 = MECHANICAL_CONTEXT( '', #27, 'mechanical' );
#55 = MANIFOLD_SOLID_BREP( '1', #70 );
#56 = AXIS2_PLACEMENT_3D( '', #71, #72, #73 );
#59 = LENGTH_MEASURE_WITH_UNIT( LENGTH_MEASURE( 1.00000000000000 ), #74 );
#62 = DIMENSIONAL_EXPONENTS( 1.00000000000000, 0.000000000000000, 0.000000000000000, 0.000000000000000, 0.000000000000000, 0.000000000000000, 0.000000000000000 );
#64 = DIMENSIONAL_EXPONENTS( 0.000000000000000, 0.000000000000000, 0.000000000000000, 0.000000000000000, 0.000000000000000, 0.000000000000000, 0.000000000000000 );
#70 = CLOSED_SHELL( '', ( #75, #76, #77, #78, #79, #80, #81, #82, #83, #84, #85, #86, #87, #88, #89 ) );
#71 = CARTESIAN_POINT( '', ( 0.000000000000000, 0.000000000000000, 0.000000000000000 ) );
#72 = DIRECTION( '', ( 0.000000000000000, 0.000000000000000, 1.00000000000000 ) );
#73 = DIRECTION( '', ( 1.00000000000000, 0.000000000000000, 0.000000000000000 ) );
#74 =  ( NAMED_UNIT( #62 )LENGTH_UNIT(  )SI_UNIT( .MILLI., .METRE. ) );
#75 = ADVANCED_FACE( '', ( #91 ), #92, .F. );
#76 = ADVANCED_FACE( '', ( #93, #94 ), #95, .F. );
#77 = ADVANCED_FACE( '', ( #96 ), #97, .F. );
#78 = ADVANCED_FACE( '', ( #98, #99 ), #100, .F. );
#79 = ADVANCED_FACE( '', ( #101, #102 ), #103, .T. );
#80 = ADVANCED_FACE( '', ( #104, #105 ), #106, .F. );
#81 = ADVANCED_FACE( '', ( #107, #108 ), #109, .F. );
#82 = ADVANCED_FACE( '', ( #110 ), #111, .F. );
#83 = ADVANCED_FACE( '', ( #112 ), #113, .F. );
#84 = ADVANCED_FACE( '', ( #114 ), #115, .F. );
#85 = ADVANCED_FACE( '', ( #116 ), #117, .F. );
#86 = ADVANCED_FACE( '', ( #118 ), #119, .F. );
#87 = ADVANCED_FACE( '', ( #120 ), #121, .F. );
#88 = ADVANCED_FACE( '', ( #122 ), #123, .F. );
#89 = ADVANCED_FACE( '', ( #124 ), #125, .F. );
#91 = FACE_OUTER_BOUND( '', #126, .T. );
#92 = PLANE( '', #127 );
#93 = FACE_BOUND( '', #128, .T. );
#94 = FACE_OUTER_BOUND( '', #129, .T. );
#95 = CONICAL_SURFACE( '', #130, 6.10000000000000, 0.785398163397448 );
#96 = FACE_OUTER_BOUND( '', #131, .T. );
#97 = PLANE( '', #132 );
#98 = FACE_BOUND( '', #133, .T. );
#99 = FACE_OUTER_BOUND( '', #134, .T. );
#100 = PLANE( '', #135 );
#101 = FACE_BOUND( '', #136, .T. );
#102 = FACE_OUTER_BOUND( '', #137, .T. );
#103 = PLANE( '', #138 );
#104 = FACE_OUTER_BOUND( '', #139, .T. );
#105 = FACE_BOUND( '', #140, .T. );
#106 = CONICAL_SURFACE( '', #141, 5.10000000000000, 0.785398163397449 );
#107 = FACE_OUTER_BOUND( '', #142, .T. );
#108 = FACE_OUTER_BOUND( '', #143, .T. );
#109 = CYLINDRICAL_SURFACE( '', #144, 5.10000000000000 );
#110 = FACE_OUTER_BOUND( '', #145, .T. );
#111 = PLANE( '', #146 );
#112 = FACE_OUTER_BOUND( '', #147, .T. );
#113 = PLANE( '', #148 );
#114 = FACE_OUTER_BOUND( '', #149, .T. );
#115 = PLANE( '', #150 );
#116 = FACE_OUTER_BOUND( '', #151, .T. );
#117 = PLANE( '', #152 );
#118 = FACE_OUTER_BOUND( '', #153, .T. );
#119 = PLANE( '', #154 );
#120 = FACE_OUTER_BOUND( '', #155, .T. );
#121 = PLANE( '', #156 );
#122 = FACE_OUTER_BOUND( '', #157, .T. );
#123 = CYLINDRICAL_SURFACE( '', #158, 6.50000000000000 );
#124 = FACE_OUTER_BOUND( '', #159, .T. );
#125 = PLANE( '', #160 );
#126 = EDGE_LOOP( '', ( #161, #162, #163, #164 ) );
#127 = AXIS2_PLACEMENT_3D( '', #165, #166, #167 );
#128 = EDGE_LOOP( '', ( #168 ) );
#129 = EDGE_LOOP( '', ( #169 ) );
#130 = AXIS2_PLACEMENT_3D( '', #170, #171, #172 );
#131 = EDGE_LOOP( '', ( #173, #174, #175, #176, #177 ) );
#132 = AXIS2_PLACEMENT_3D( '', #178, #179, #180 );
#133 = EDGE_LOOP( '', ( #181 ) );
#134 = EDGE_LOOP( '', ( #182, #183, #184, #185, #186, #187, #188, #189 ) );
#135 = AXIS2_PLACEMENT_3D( '', #190, #191, #192 );
#136 = EDGE_LOOP( '', ( #193 ) );
#137 = EDGE_LOOP( '', ( #194, #195, #196, #197, #198, #199, #200, #201 ) );
#138 = AXIS2_PLACEMENT_3D( '', #202, #203, #204 );
#139 = EDGE_LOOP( '', ( #205 ) );
#140 = EDGE_LOOP( '', ( #206 ) );
#141 = AXIS2_PLACEMENT_3D( '', #207, #208, #209 );
#142 = EDGE_LOOP( '', ( #210 ) );
#143 = EDGE_LOOP( '', ( #211 ) );
#144 = AXIS2_PLACEMENT_3D( '', #212, #213, #214 );
#145 = EDGE_LOOP( '', ( #215, #216, #217, #218 ) );
#146 = AXIS2_PLACEMENT_3D( '', #219, #220, #221 );
#147 = EDGE_LOOP( '', ( #222, #223, #224, #225, #226 ) );
#148 = AXIS2_PLACEMENT_3D( '', #227, #228, #229 );
#149 = EDGE_LOOP( '', ( #230, #231, #232, #233 ) );
#150 = AXIS2_PLACEMENT_3D( '', #234, #235, #236 );
#151 = EDGE_LOOP( '', ( #237, #238, #239, #240 ) );
#152 = AXIS2_PLACEMENT_3D( '', #241, #242, #243 );
#153 = EDGE_LOOP( '', ( #244, #245, #246, #247 ) );
#154 = AXIS2_PLACEMENT_3D( '', #248, #249, #250 );
#155 = EDGE_LOOP( '', ( #251, #252, #253, #254, #255 ) );
#156 = AXIS2_PLACEMENT_3D( '', #256, #257, #258 );
#157 = EDGE_LOOP( '', ( #259, #260, #261, #262 ) );
#158 = AXIS2_PLACEMENT_3D( '', #263, #264, #265 );
#159 = EDGE_LOOP( '', ( #266, #267, #268, #269, #270 ) );
#160 = AXIS2_PLACEMENT_3D( '', #271, #272, #273 );
#161 = ORIENTED_EDGE( '', *, *, #274, .T. );
#162 = ORIENTED_EDGE( '', *, *, #275, .F. );
#163 = ORIENTED_EDGE( '', *, *, #276, .F. );
#164 = ORIENTED_EDGE( '', *, *, #277, .T. );
#165 = CARTESIAN_POINT( '', ( -40.0000000000000, 19.0000000000000, 19.0000000000000 ) );
#166 = DIRECTION( '', ( 1.00000000000000, -1.82602471155454E-016, 0.000000000000000 ) );
#167 = DIRECTION( '', ( 1.82602471155453E-016, 1.00000000000000, 0.000000000000000 ) );
#168 = ORIENTED_EDGE( '', *, *, #278, .F. );
#169 = ORIENTED_EDGE( '', *, *, #279, .F. );
#170 = CARTESIAN_POINT( '', ( -25.0000000000000, 0.000000000000000, 19.0000000000000 ) );
#171 = DIRECTION( '', ( -0.000000000000000, -0.000000000000000, 1.00000000000000 ) );
#172 = DIRECTION( '', ( 1.00000000000000, 0.000000000000000, 0.000000000000000 ) );
#173 = ORIENTED_EDGE( '', *, *, #280, .F. );
#174 = ORIENTED_EDGE( '', *, *, #281, .T. );
#175 = ORIENTED_EDGE( '', *, *, #282, .F. );
#176 = ORIENTED_EDGE( '', *, *, #275, .T. );
#177 = ORIENTED_EDGE( '', *, *, #283, .T. );
#178 = CARTESIAN_POINT( '', ( -40.0000000000000, -19.0000000000000, 19.0000000000000 ) );
#179 = DIRECTION( '', ( 4.62592926927149E-017, 1.00000000000000, 0.000000000000000 ) );
#180 = DIRECTION( '', ( -1.00000000000000, 4.62592926927149E-017, 0.000000000000000 ) );
#181 = ORIENTED_EDGE( '', *, *, #279, .T. );
#182 = ORIENTED_EDGE( '', *, *, #284, .T. );
#183 = ORIENTED_EDGE( '', *, *, #285, .T. );
#184 = ORIENTED_EDGE( '', *, *, #286, .T. );
#185 = ORIENTED_EDGE( '', *, *, #276, .T. );
#186 = ORIENTED_EDGE( '', *, *, #282, .T. );
#187 = ORIENTED_EDGE( '', *, *, #287, .T. );
#188 = ORIENTED_EDGE( '', *, *, #288, .T. );
#189 = ORIENTED_EDGE( '', *, *, #289, .T. );
#190 = CARTESIAN_POINT( '', ( 0.000000000000000, 0.000000000000000, 19.0000000000000 ) );
#191 = DIRECTION( '', ( 0.000000000000000, 0.000000000000000, -1.00000000000000 ) );
#192 = DIRECTION( '', ( -1.00000000000000, 0.000000000000000, 0.000000000000000 ) );
#193 = ORIENTED_EDGE( '', *, *, #290, .T. );
#194 = ORIENTED_EDGE( '', *, *, #274, .F. );
#195 = ORIENTED_EDGE( '', *, *, #291, .F. );
#196 = ORIENTED_EDGE( '', *, *, #292, .F. );
#197 = ORIENTED_EDGE( '', *, *, #293, .F. );
#198 = ORIENTED_EDGE( '', *, *, #294, .F. );
#199 = ORIENTED_EDGE( '', *, *, #295, .F. );
#200 = ORIENTED_EDGE( '', *, *, #296, .F. );
#201 = ORIENTED_EDGE( '', *, *, #283, .F. );
#202 = CARTESIAN_POINT( '', ( 0.000000000000000, 0.000000000000000, 0.000000000000000 ) );
#203 = DIRECTION( '', ( 0.000000000000000, 0.000000000000000, -1.00000000000000 ) );
#204 = DIRECTION( '', ( -1.00000000000000, 0.000000000000000, 0.000000000000000 ) );
#205 = ORIENTED_EDGE( '', *, *, #290, .F. );
#206 = ORIENTED_EDGE( '', *, *, #297, .F. );
#207 = CARTESIAN_POINT( '', ( -25.0000000000000, 0.000000000000000, 1.00000000000000 ) );
#208 = DIRECTION( '', ( -0.000000000000000, 0.000000000000000, -1.00000000000000 ) );
#209 = DIRECTION( '', ( -1.00000000000000, 0.000000000000000, 0.000000000000000 ) );
#210 = ORIENTED_EDGE( '', *, *, #297, .T. );
#211 = ORIENTED_EDGE( '', *, *, #278, .T. );
#212 = CARTESIAN_POINT( '', ( -25.0000000000000, 0.000000000000000, 19.0000000000000 ) );
#213 = DIRECTION( '', ( -0.000000000000000, -0.000000000000000, 1.00000000000000 ) );
#214 = DIRECTION( '', ( 0.000000000000000, -1.00000000000000, 0.000000000000000 ) );
#215 = ORIENTED_EDGE( '', *, *, #281, .F. );
#216 = ORIENTED_EDGE( '', *, *, #298, .F. );
#217 = ORIENTED_EDGE( '', *, *, #299, .F. );
#218 = ORIENTED_EDGE( '', *, *, #287, .F. );
#219 = CARTESIAN_POINT( '', ( 23.0000000000000, 0.000000000000000, 19.0000000000000 ) );
#220 = DIRECTION( '', ( -0.707106781186548, 0.000000000000000, -0.707106781186548 ) );
#221 = DIRECTION( '', ( -0.707106781186548, 0.000000000000000, 0.707106781186548 ) );
#222 = ORIENTED_EDGE( '', *, *, #286, .F. );
#223 = ORIENTED_EDGE( '', *, *, #300, .T. );
#224 = ORIENTED_EDGE( '', *, *, #301, .T. );
#225 = ORIENTED_EDGE( '', *, *, #291, .T. );
#226 = ORIENTED_EDGE( '', *, *, #277, .F. );
#227 = CARTESIAN_POINT( '', ( 35.0000000000000, 19.0000000000000, 19.0000000000000 ) );
#228 = DIRECTION( '', ( -4.62592926927149E-017, -1.00000000000000, 0.000000000000000 ) );
#229 = DIRECTION( '', ( 1.00000000000000, -4.62592926927149E-017, 0.000000000000000 ) );
#230 = ORIENTED_EDGE( '', *, *, #302, .F. );
#231 = ORIENTED_EDGE( '', *, *, #303, .F. );
#232 = ORIENTED_EDGE( '', *, *, #300, .F. );
#233 = ORIENTED_EDGE( '', *, *, #285, .F. );
#234 = CARTESIAN_POINT( '', ( 23.0000000000000, 0.000000000000000, 19.0000000000000 ) );
#235 = DIRECTION( '', ( -0.707106781186548, 0.000000000000000, -0.707106781186548 ) );
#236 = DIRECTION( '', ( -0.707106781186548, 0.000000000000000, 0.707106781186548 ) );
#237 = ORIENTED_EDGE( '', *, *, #301, .F. );
#238 = ORIENTED_EDGE( '', *, *, #303, .T. );
#239 = ORIENTED_EDGE( '', *, *, #304, .T. );
#240 = ORIENTED_EDGE( '', *, *, #292, .T. );
#241 = CARTESIAN_POINT( '', ( 35.0000000000000, 6.50000000000000, 19.0000000000000 ) );
#242 = DIRECTION( '', ( -1.00000000000000, 0.000000000000000, 0.000000000000000 ) );
#243 = DIRECTION( '', ( 0.000000000000000, 0.000000000000000, 1.00000000000000 ) );
#244 = ORIENTED_EDGE( '', *, *, #305, .F. );
#245 = ORIENTED_EDGE( '', *, *, #298, .T. );
#246 = ORIENTED_EDGE( '', *, *, #280, .T. );
#247 = ORIENTED_EDGE( '', *, *, #296, .T. );
#248 = CARTESIAN_POINT( '', ( 35.0000000000000, -19.0000000000000, 19.0000000000000 ) );
#249 = DIRECTION( '', ( -1.00000000000000, 0.000000000000000, 0.000000000000000 ) );
#250 = DIRECTION( '', ( 0.000000000000000, 0.000000000000000, 1.00000000000000 ) );
#251 = ORIENTED_EDGE( '', *, *, #288, .F. );
#252 = ORIENTED_EDGE( '', *, *, #299, .T. );
#253 = ORIENTED_EDGE( '', *, *, #305, .T. );
#254 = ORIENTED_EDGE( '', *, *, #295, .T. );
#255 = ORIENTED_EDGE( '', *, *, #306, .F. );
#256 = CARTESIAN_POINT( '', ( 35.0000000000000, -6.50000000000000, 19.0000000000000 ) );
#257 = DIRECTION( '', ( 0.000000000000000, -1.00000000000000, 0.000000000000000 ) );
#258 = DIRECTION( '', ( 0.000000000000000, 0.000000000000000, -1.00000000000000 ) );
#259 = ORIENTED_EDGE( '', *, *, #294, .T. );
#260 = ORIENTED_EDGE( '', *, *, #307, .F. );
#261 = ORIENTED_EDGE( '', *, *, #289, .F. );
#262 = ORIENTED_EDGE( '', *, *, #306, .T. );
#263 = CARTESIAN_POINT( '', ( 0.000000000000000, 0.000000000000000, 19.0000000000000 ) );
#264 = DIRECTION( '', ( -0.000000000000000, -0.000000000000000, 1.00000000000000 ) );
#265 = DIRECTION( '', ( -1.00000000000000, 0.000000000000000, 0.000000000000000 ) );
#266 = ORIENTED_EDGE( '', *, *, #304, .F. );
#267 = ORIENTED_EDGE( '', *, *, #302, .T. );
#268 = ORIENTED_EDGE( '', *, *, #284, .F. );
#269 = ORIENTED_EDGE( '', *, *, #307, .T. );
#270 = ORIENTED_EDGE( '', *, *, #293, .T. );
#271 = CARTESIAN_POINT( '', ( 0.000000000000000, 6.50000000000000, 19.0000000000000 ) );
#272 = DIRECTION( '', ( 0.000000000000000, 1.00000000000000, 0.000000000000000 ) );
#273 = DIRECTION( '', ( 0.000000000000000, 0.000000000000000, 1.00000000000000 ) );
#274 = EDGE_CURVE( '', #308, #309, #310, .T. );
#275 = EDGE_CURVE( '', #311, #309, #312, .T. );
#276 = EDGE_CURVE( '', #313, #311, #314, .T. );
#277 = EDGE_CURVE( '', #313, #308, #315, .T. );
#278 = EDGE_CURVE( '', #316, #316, #317, .F. );
#279 = EDGE_CURVE( '', #318, #318, #319, .T. );
#280 = EDGE_CURVE( '', #320, #321, #322, .T. );
#281 = EDGE_CURVE( '', #320, #323, #324, .F. );
#282 = EDGE_CURVE( '', #311, #323, #325, .T. );
#283 = EDGE_CURVE( '', #309, #321, #326, .T. );
#284 = EDGE_CURVE( '', #327, #328, #329, .T. );
#285 = EDGE_CURVE( '', #328, #330, #331, .T. );
#286 = EDGE_CURVE( '', #330, #313, #332, .T. );
#287 = EDGE_CURVE( '', #323, #333, #334, .T. );
#288 = EDGE_CURVE( '', #333, #335, #336, .T. );
#289 = EDGE_CURVE( '', #335, #327, #337, .T. );
#290 = EDGE_CURVE( '', #338, #338, #339, .F. );
#291 = EDGE_CURVE( '', #340, #308, #341, .T. );
#292 = EDGE_CURVE( '', #342, #340, #343, .T. );
#293 = EDGE_CURVE( '', #344, #342, #345, .T. );
#294 = EDGE_CURVE( '', #346, #344, #347, .T. );
#295 = EDGE_CURVE( '', #348, #346, #349, .T. );
#296 = EDGE_CURVE( '', #321, #348, #350, .T. );
#297 = EDGE_CURVE( '', #351, #351, #352, .T. );
#298 = EDGE_CURVE( '', #353, #320, #354, .T. );
#299 = EDGE_CURVE( '', #333, #353, #355, .F. );
#300 = EDGE_CURVE( '', #330, #356, #357, .F. );
#301 = EDGE_CURVE( '', #356, #340, #358, .T. );
#302 = EDGE_CURVE( '', #359, #328, #360, .F. );
#303 = EDGE_CURVE( '', #356, #359, #361, .T. );
#304 = EDGE_CURVE( '', #359, #342, #362, .T. );
#305 = EDGE_CURVE( '', #353, #348, #363, .T. );
#306 = EDGE_CURVE( '', #335, #346, #364, .T. );
#307 = EDGE_CURVE( '', #327, #344, #365, .T. );
#308 = VERTEX_POINT( '', #366 );
#309 = VERTEX_POINT( '', #367 );
#310 = LINE( '', #368, #369 );
#311 = VERTEX_POINT( '', #370 );
#312 = LINE( '', #371, #372 );
#313 = VERTEX_POINT( '', #373 );
#314 = LINE( '', #374, #375 );
#315 = LINE( '', #376, #377 );
#316 = VERTEX_POINT( '', #378 );
#317 = CIRCLE( '', #379, 5.10000000000000 );
#318 = VERTEX_POINT( '', #380 );
#319 = CIRCLE( '', #381, 6.10000000000000 );
#320 = VERTEX_POINT( '', #382 );
#321 = VERTEX_POINT( '', #383 );
#322 = LINE( '', #384, #385 );
#323 = VERTEX_POINT( '', #386 );
#324 = LINE( '', #387, #388 );
#325 = LINE( '', #389, #390 );
#326 = LINE( '', #391, #392 );
#327 = VERTEX_POINT( '', #393 );
#328 = VERTEX_POINT( '', #394 );
#329 = LINE( '', #395, #396 );
#330 = VERTEX_POINT( '', #397 );
#331 = LINE( '', #398, #399 );
#332 = LINE( '', #400, #401 );
#333 = VERTEX_POINT( '', #402 );
#334 = LINE( '', #403, #404 );
#335 = VERTEX_POINT( '', #405 );
#336 = LINE( '', #406, #407 );
#337 = CIRCLE( '', #408, 6.50000000000000 );
#338 = VERTEX_POINT( '', #409 );
#339 = CIRCLE( '', #410, 6.10000000000000 );
#340 = VERTEX_POINT( '', #411 );
#341 = LINE( '', #412, #413 );
#342 = VERTEX_POINT( '', #414 );
#343 = LINE( '', #415, #416 );
#344 = VERTEX_POINT( '', #417 );
#345 = LINE( '', #418, #419 );
#346 = VERTEX_POINT( '', #420 );
#347 = CIRCLE( '', #421, 6.50000000000000 );
#348 = VERTEX_POINT( '', #422 );
#349 = LINE( '', #423, #424 );
#350 = LINE( '', #425, #426 );
#351 = VERTEX_POINT( '', #427 );
#352 = CIRCLE( '', #428, 5.10000000000000 );
#353 = VERTEX_POINT( '', #429 );
#354 = LINE( '', #430, #431 );
#355 = LINE( '', #432, #433 );
#356 = VERTEX_POINT( '', #434 );
#357 = LINE( '', #435, #436 );
#358 = LINE( '', #437, #438 );
#359 = VERTEX_POINT( '', #439 );
#360 = LINE( '', #440, #441 );
#361 = LINE( '', #442, #443 );
#362 = LINE( '', #444, #445 );
#363 = LINE( '', #446, #447 );
#364 = LINE( '', #448, #449 );
#365 = LINE( '', #450, #451 );
#366 = CARTESIAN_POINT( '', ( -40.0000000000000, 19.0000000000000, 0.000000000000000 ) );
#367 = CARTESIAN_POINT( '', ( -40.0000000000000, -19.0000000000000, 0.000000000000000 ) );
#368 = CARTESIAN_POINT( '', ( -40.0000000000000, 19.0000000000000, 0.000000000000000 ) );
#369 = VECTOR( '', #452, 1000.00000000000 );
#370 = CARTESIAN_POINT( '', ( -40.0000000000000, -19.0000000000000, 19.0000000000000 ) );
#371 = CARTESIAN_POINT( '', ( -40.0000000000000, -19.0000000000000, 19.0000000000000 ) );
#372 = VECTOR( '', #453, 1000.00000000000 );
#373 = CARTESIAN_POINT( '', ( -40.0000000000000, 19.0000000000000, 19.0000000000000 ) );
#374 = CARTESIAN_POINT( '', ( -40.0000000000000, 19.0000000000000, 19.0000000000000 ) );
#375 = VECTOR( '', #454, 1000.00000000000 );
#376 = CARTESIAN_POINT( '', ( -40.0000000000000, 19.0000000000000, 19.0000000000000 ) );
#377 = VECTOR( '', #455, 1000.00000000000 );
#378 = CARTESIAN_POINT( '', ( -30.1000000000000, 0.000000000000000, 18.0000000000000 ) );
#379 = AXIS2_PLACEMENT_3D( '', #456, #457, #458 );
#380 = CARTESIAN_POINT( '', ( -31.1000000000000, 0.000000000000000, 19.0000000000000 ) );
#381 = AXIS2_PLACEMENT_3D( '', #459, #460, #461 );
#382 = CARTESIAN_POINT( '', ( 35.0000000000000, -19.0000000000000, 7.00000000000000 ) );
#383 = CARTESIAN_POINT( '', ( 35.0000000000000, -19.0000000000000, 0.000000000000000 ) );
#384 = CARTESIAN_POINT( '', ( 35.0000000000000, -19.0000000000000, 19.0000000000000 ) );
#385 = VECTOR( '', #462, 1000.00000000000 );
#386 = CARTESIAN_POINT( '', ( 23.0000000000000, -19.0000000000000, 19.0000000000000 ) );
#387 = CARTESIAN_POINT( '', ( 23.0000000000000, -19.0000000000000, 19.0000000000000 ) );
#388 = VECTOR( '', #463, 1000.00000000000 );
#389 = CARTESIAN_POINT( '', ( -40.0000000000000, -19.0000000000000, 19.0000000000000 ) );
#390 = VECTOR( '', #464, 1000.00000000000 );
#391 = CARTESIAN_POINT( '', ( -40.0000000000000, -19.0000000000000, 0.000000000000000 ) );
#392 = VECTOR( '', #465, 1000.00000000000 );
#393 = CARTESIAN_POINT( '', ( -1.19403062916867E-015, 6.50000000000000, 19.0000000000000 ) );
#394 = CARTESIAN_POINT( '', ( 23.0000000000000, 6.50000000000000, 19.0000000000000 ) );
#395 = CARTESIAN_POINT( '', ( 0.000000000000000, 6.50000000000000, 19.0000000000000 ) );
#396 = VECTOR( '', #466, 1000.00000000000 );
#397 = CARTESIAN_POINT( '', ( 23.0000000000000, 19.0000000000000, 19.0000000000000 ) );
#398 = CARTESIAN_POINT( '', ( 23.0000000000000, 0.000000000000000, 19.0000000000000 ) );
#399 = VECTOR( '', #467, 1000.00000000000 );
#400 = CARTESIAN_POINT( '', ( 35.0000000000000, 19.0000000000000, 19.0000000000000 ) );
#401 = VECTOR( '', #468, 1000.00000000000 );
#402 = CARTESIAN_POINT( '', ( 23.0000000000000, -6.50000000000000, 19.0000000000000 ) );
#403 = CARTESIAN_POINT( '', ( 23.0000000000000, 0.000000000000000, 19.0000000000000 ) );
#404 = VECTOR( '', #469, 1000.00000000000 );
#405 = CARTESIAN_POINT( '', ( 0.000000000000000, -6.50000000000000, 19.0000000000000 ) );
#406 = CARTESIAN_POINT( '', ( 35.0000000000000, -6.50000000000000, 19.0000000000000 ) );
#407 = VECTOR( '', #470, 1000.00000000000 );
#408 = AXIS2_PLACEMENT_3D( '', #471, #472, #473 );
#409 = CARTESIAN_POINT( '', ( -31.1000000000000, 0.000000000000000, 0.000000000000000 ) );
#410 = AXIS2_PLACEMENT_3D( '', #474, #475, #476 );
#411 = CARTESIAN_POINT( '', ( 35.0000000000000, 19.0000000000000, 0.000000000000000 ) );
#412 = CARTESIAN_POINT( '', ( 35.0000000000000, 19.0000000000000, 0.000000000000000 ) );
#413 = VECTOR( '', #477, 1000.00000000000 );
#414 = CARTESIAN_POINT( '', ( 35.0000000000000, 6.50000000000000, 0.000000000000000 ) );
#415 = CARTESIAN_POINT( '', ( 35.0000000000000, 6.50000000000000, 0.000000000000000 ) );
#416 = VECTOR( '', #478, 1000.00000000000 );
#417 = CARTESIAN_POINT( '', ( -1.19403062916867E-015, 6.50000000000000, 0.000000000000000 ) );
#418 = CARTESIAN_POINT( '', ( 0.000000000000000, 6.50000000000000, 0.000000000000000 ) );
#419 = VECTOR( '', #479, 1000.00000000000 );
#420 = CARTESIAN_POINT( '', ( 0.000000000000000, -6.50000000000000, 0.000000000000000 ) );
#421 = AXIS2_PLACEMENT_3D( '', #480, #481, #482 );
#422 = CARTESIAN_POINT( '', ( 35.0000000000000, -6.50000000000000, 0.000000000000000 ) );
#423 = CARTESIAN_POINT( '', ( 35.0000000000000, -6.50000000000000, 0.000000000000000 ) );
#424 = VECTOR( '', #483, 1000.00000000000 );
#425 = CARTESIAN_POINT( '', ( 35.0000000000000, -19.0000000000000, 0.000000000000000 ) );
#426 = VECTOR( '', #484, 1000.00000000000 );
#427 = CARTESIAN_POINT( '', ( -30.1000000000000, 0.000000000000000, 1.00000000000000 ) );
#428 = AXIS2_PLACEMENT_3D( '', #485, #486, #487 );
#429 = CARTESIAN_POINT( '', ( 35.0000000000000, -6.50000000000000, 7.00000000000000 ) );
#430 = CARTESIAN_POINT( '', ( 35.0000000000000, -19.0000000000000, 7.00000000000000 ) );
#431 = VECTOR( '', #488, 1000.00000000000 );
#432 = CARTESIAN_POINT( '', ( 23.0000000000000, -6.50000000000000, 19.0000000000000 ) );
#433 = VECTOR( '', #489, 1000.00000000000 );
#434 = CARTESIAN_POINT( '', ( 35.0000000000000, 19.0000000000000, 7.00000000000000 ) );
#435 = CARTESIAN_POINT( '', ( 23.0000000000000, 19.0000000000000, 19.0000000000000 ) );
#436 = VECTOR( '', #490, 1000.00000000000 );
#437 = CARTESIAN_POINT( '', ( 35.0000000000000, 19.0000000000000, 19.0000000000000 ) );
#438 = VECTOR( '', #491, 1000.00000000000 );
#439 = CARTESIAN_POINT( '', ( 35.0000000000000, 6.50000000000000, 7.00000000000000 ) );
#440 = CARTESIAN_POINT( '', ( 23.0000000000000, 6.50000000000000, 19.0000000000000 ) );
#441 = VECTOR( '', #492, 1000.00000000000 );
#442 = CARTESIAN_POINT( '', ( 35.0000000000000, 6.50000000000000, 7.00000000000000 ) );
#443 = VECTOR( '', #493, 1000.00000000000 );
#444 = CARTESIAN_POINT( '', ( 35.0000000000000, 6.50000000000000, 19.0000000000000 ) );
#445 = VECTOR( '', #494, 1000.00000000000 );
#446 = CARTESIAN_POINT( '', ( 35.0000000000000, -6.50000000000000, 19.0000000000000 ) );
#447 = VECTOR( '', #495, 1000.00000000000 );
#448 = CARTESIAN_POINT( '', ( 0.000000000000000, -6.50000000000000, 19.0000000000000 ) );
#449 = VECTOR( '', #496, 1000.00000000000 );
#450 = CARTESIAN_POINT( '', ( -1.19403062916867E-015, 6.50000000000000, 19.0000000000000 ) );
#451 = VECTOR( '', #497, 1000.00000000000 );
#452 = DIRECTION( '', ( -1.82602471155453E-016, -1.00000000000000, 0.000000000000000 ) );
#453 = DIRECTION( '', ( 0.000000000000000, 0.000000000000000, -1.00000000000000 ) );
#454 = DIRECTION( '', ( -1.82602471155453E-016, -1.00000000000000, 0.000000000000000 ) );
#455 = DIRECTION( '', ( 0.000000000000000, 0.000000000000000, -1.00000000000000 ) );
#456 = CARTESIAN_POINT( '', ( -25.0000000000000, 0.000000000000000, 18.0000000000000 ) );
#457 = DIRECTION( '', ( 0.000000000000000, 0.000000000000000, -1.00000000000000 ) );
#458 = DIRECTION( '', ( -1.00000000000000, 0.000000000000000, 0.000000000000000 ) );
#459 = CARTESIAN_POINT( '', ( -25.0000000000000, 0.000000000000000, 19.0000000000000 ) );
#460 = DIRECTION( '', ( 0.000000000000000, 0.000000000000000, -1.00000000000000 ) );
#461 = DIRECTION( '', ( -1.00000000000000, 0.000000000000000, 0.000000000000000 ) );
#462 = DIRECTION( '', ( 0.000000000000000, 0.000000000000000, -1.00000000000000 ) );
#463 = DIRECTION( '', ( 0.707106781186548, -3.27102595559120E-017, -0.707106781186548 ) );
#464 = DIRECTION( '', ( 1.00000000000000, -4.62592926927149E-017, 0.000000000000000 ) );
#465 = DIRECTION( '', ( 1.00000000000000, -4.62592926927149E-017, 0.000000000000000 ) );
#466 = DIRECTION( '', ( 1.00000000000000, 0.000000000000000, 0.000000000000000 ) );
#467 = DIRECTION( '', ( 0.000000000000000, 1.00000000000000, 0.000000000000000 ) );
#468 = DIRECTION( '', ( -1.00000000000000, 4.62592926927149E-017, 0.000000000000000 ) );
#469 = DIRECTION( '', ( 0.000000000000000, 1.00000000000000, 0.000000000000000 ) );
#470 = DIRECTION( '', ( -1.00000000000000, 0.000000000000000, 0.000000000000000 ) );
#471 = CARTESIAN_POINT( '', ( 0.000000000000000, 0.000000000000000, 19.0000000000000 ) );
#472 = DIRECTION( '', ( 0.000000000000000, 0.000000000000000, -1.00000000000000 ) );
#473 = DIRECTION( '', ( 1.00000000000000, 0.000000000000000, 0.000000000000000 ) );
#474 = CARTESIAN_POINT( '', ( -25.0000000000000, 0.000000000000000, 0.000000000000000 ) );
#475 = DIRECTION( '', ( 0.000000000000000, 0.000000000000000, -1.00000000000000 ) );
#476 = DIRECTION( '', ( -1.00000000000000, 0.000000000000000, 0.000000000000000 ) );
#477 = DIRECTION( '', ( -1.00000000000000, 4.62592926927149E-017, 0.000000000000000 ) );
#478 = DIRECTION( '', ( 0.000000000000000, 1.00000000000000, 0.000000000000000 ) );
#479 = DIRECTION( '', ( 1.00000000000000, 0.000000000000000, 0.000000000000000 ) );
#480 = CARTESIAN_POINT( '', ( 0.000000000000000, 0.000000000000000, 0.000000000000000 ) );
#481 = DIRECTION( '', ( 0.000000000000000, 0.000000000000000, -1.00000000000000 ) );
#482 = DIRECTION( '', ( 1.00000000000000, 0.000000000000000, 0.000000000000000 ) );
#483 = DIRECTION( '', ( -1.00000000000000, 0.000000000000000, 0.000000000000000 ) );
#484 = DIRECTION( '', ( 0.000000000000000, 1.00000000000000, 0.000000000000000 ) );
#485 = CARTESIAN_POINT( '', ( -25.0000000000000, 0.000000000000000, 1.00000000000000 ) );
#486 = DIRECTION( '', ( 0.000000000000000, 0.000000000000000, -1.00000000000000 ) );
#487 = DIRECTION( '', ( -1.00000000000000, 0.000000000000000, 0.000000000000000 ) );
#488 = DIRECTION( '', ( 0.000000000000000, -1.00000000000000, 0.000000000000000 ) );
#489 = DIRECTION( '', ( -0.707106781186548, 0.000000000000000, 0.707106781186548 ) );
#490 = DIRECTION( '', ( -0.707106781186548, 3.27102595559120E-017, 0.707106781186548 ) );
#491 = DIRECTION( '', ( 0.000000000000000, 0.000000000000000, -1.00000000000000 ) );
#492 = DIRECTION( '', ( 0.707106781186548, 0.000000000000000, -0.707106781186548 ) );
#493 = DIRECTION( '', ( 0.000000000000000, -1.00000000000000, 0.000000000000000 ) );
#494 = DIRECTION( '', ( 0.000000000000000, 0.000000000000000, -1.00000000000000 ) );
#495 = DIRECTION( '', ( 0.000000000000000, 0.000000000000000, -1.00000000000000 ) );
#496 = DIRECTION( '', ( 0.000000000000000, 0.000000000000000, -1.00000000000000 ) );
#497 = DIRECTION( '', ( 0.000000000000000, 0.000000000000000, -1.00000000000000 ) );
ENDSEC;
END-ISO-10303-21;
