ISO-10303-21;
HEADER;
FILE_DESCRIPTION( ( 'Unknown' ), '1' );
FILE_NAME( 'f:/¼È¦s/CP/CP06-3D/CP06-16080.stp', 'Unknown', ( 'Unknown' ), ( 'Unknown' ), 'XStep 1.0', 'Unknown', '  ' );
FILE_SCHEMA( ( 'CONFIG_CONTROL_DESIGN' ) );
ENDSEC;
DATA;
#1 = DESIGN_CONTEXT( '', #27, 'design' );
#2 = APPLICATION_PROTOCOL_DEFINITION( 'INTERNATIONAL STANDARD', 'config_control_design', 1994, #27 );
#3 = PRODUCT_CATEGORY_RELATIONSHIP( 'NONE', 'NONE', #28, #29 );
#4 = DATE_AND_TIME( #30, #31 );
#5 = DATE_TIME_ROLE( 'creation_date' );
#6 = DATE_TIME_ROLE( 'classification_date' );
#7 = PERSON_AND_ORGANIZATION_ROLE( 'creator' );
#8 = PERSON_AND_ORGANIZATION_ROLE( 'design_supplier' );
#9 = PERSON_AND_ORGANIZATION_ROLE( 'classification_officer' );
#10 = PERSON_AND_ORGANIZATION_ROLE( 'design_owner' );
#11 = APPROVAL_PERSON_ORGANIZATION( #32, #33, #34 );
#12 = APPROVAL_DATE_TIME( #4, #33 );
#13 = CC_DESIGN_APPROVAL( #33, ( #35, #36, #37 ) );
#14 = CC_DESIGN_DATE_AND_TIME_ASSIGNMENT( #4, #5, ( #37 ) );
#15 = CC_DESIGN_DATE_AND_TIME_ASSIGNMENT( #4, #6, ( #35 ) );
#16 = CC_DESIGN_PERSON_AND_ORGANIZATION_ASSIGNMENT( #32, #10, ( #38 ) );
#17 = CC_DESIGN_PERSON_AND_ORGANIZATION_ASSIGNMENT( #32, #7, ( #37 ) );
#18 = CC_DESIGN_PERSON_AND_ORGANIZATION_ASSIGNMENT( #32, #7, ( #36 ) );
#19 = CC_DESIGN_PERSON_AND_ORGANIZATION_ASSIGNMENT( #32, #8, ( #36 ) );
#20 = CC_DESIGN_SECURITY_CLASSIFICATION( #35, ( #36 ) );
#21 = CC_DESIGN_PERSON_AND_ORGANIZATION_ASSIGNMENT( #32, #9, ( #35 ) );
#22 = SHAPE_DEFINITION_REPRESENTATION( #39, #40 );
#23 =  ( GEOMETRIC_REPRESENTATION_CONTEXT( 3 )GLOBAL_UNCERTAINTY_ASSIGNED_CONTEXT( ( #43 ) )GLOBAL_UNIT_ASSIGNED_CONTEXT( ( #45, #46, #47 ) )REPRESENTATION_CONTEXT( 'NONE', 'WORKSPACE' ) );
#27 = APPLICATION_CONTEXT( 'CONFIGURATION CONTROLLED 3D DESIGNS OF MECHANICAL PARTS AND ASSEMBLIES' );
#28 = PRODUCT_CATEGORY( 'part', 'NONE' );
#29 = PRODUCT_RELATED_PRODUCT_CATEGORY( 'detail', ' ', ( #38 ) );
#30 = CALENDAR_DATE( 2009, 9, 10 );
#31 = LOCAL_TIME( 9, 36, 51.0000000000000, #49 );
#32 = PERSON_AND_ORGANIZATION( #50, #51 );
#33 = APPROVAL( #52, 'SOLID MODEL' );
#34 = APPROVAL_ROLE( 'APPROVED' );
#35 = SECURITY_CLASSIFICATION( '', '', #53 );
#36 = PRODUCT_DEFINITION_FORMATION_WITH_SPECIFIED_SOURCE( ' ', 'NONE', #38, .NOT_KNOWN. );
#37 = PRODUCT_DEFINITION( 'NONE', 'NONE', #36, #1 );
#38 = PRODUCT( '1', '1', 'PART-1-DESC', ( #54 ) );
#39 = PRODUCT_DEFINITION_SHAPE( 'NONE', 'NONE', #37 );
#40 = ADVANCED_BREP_SHAPE_REPRESENTATION( '1', ( #55, #56 ), #23 );
#43 = UNCERTAINTY_MEASURE_WITH_UNIT( LENGTH_MEASURE( 0.00100000000000000 ), #45, '', '' );
#45 =  ( CONVERSION_BASED_UNIT( 'MILLIMETRE', #59 )LENGTH_UNIT(  )NAMED_UNIT( #62 ) );
#46 =  ( NAMED_UNIT( #64 )PLANE_ANGLE_UNIT(  )SI_UNIT( $, .RADIAN. ) );
#47 =  ( NAMED_UNIT( #64 )SOLID_ANGLE_UNIT(  )SI_UNIT( $, .STERADIAN. ) );
#49 = COORDINATED_UNIVERSAL_TIME_OFFSET( 8, 0, .AHEAD. );
#50 = PERSON( '', 'UNSPECIFIED', $, $, $, $ );
#51 = ORGANIZATION( 'UNSPECIFIED', 'UNSPECIFIED', 'UNSPECIFIED' );
#52 = APPROVAL_STATUS( 'approved' );
#53 = SECURITY_CLASSIFICATION_LEVEL( 'unclassified' );
#54 = MECHANICAL_CONTEXT( '', #27, 'mechanical' );
#55 = MANIFOLD_SOLID_BREP( '1', #70 );
#56 = AXIS2_PLACEMENT_3D( '', #71, #72, #73 );
#59 = LENGTH_MEASURE_WITH_UNIT( LENGTH_MEASURE( 1.00000000000000 ), #74 );
#62 = DIMENSIONAL_EXPONENTS( 1.00000000000000, 0.000000000000000, 0.000000000000000, 0.000000000000000, 0.000000000000000, 0.000000000000000, 0.000000000000000 );
#64 = DIMENSIONAL_EXPONENTS( 0.000000000000000, 0.000000000000000, 0.000000000000000, 0.000000000000000, 0.000000000000000, 0.000000000000000, 0.000000000000000 );
#70 = CLOSED_SHELL( '', ( #75, #76, #77, #78, #79, #80, #81, #82, #83, #84, #85, #86, #87, #88 ) );
#71 = CARTESIAN_POINT( '', ( 0.000000000000000, 0.000000000000000, 0.000000000000000 ) );
#72 = DIRECTION( '', ( 0.000000000000000, 0.000000000000000, 1.00000000000000 ) );
#73 = DIRECTION( '', ( 1.00000000000000, 0.000000000000000, 0.000000000000000 ) );
#74 =  ( NAMED_UNIT( #62 )LENGTH_UNIT(  )SI_UNIT( .MILLI., .METRE. ) );
#75 = ADVANCED_FACE( '', ( #90 ), #91, .T. );
#76 = ADVANCED_FACE( '', ( #92 ), #93, .F. );
#77 = ADVANCED_FACE( '', ( #94 ), #95, .F. );
#78 = ADVANCED_FACE( '', ( #96, #97, #98 ), #99, .T. );
#79 = ADVANCED_FACE( '', ( #100 ), #101, .T. );
#80 = ADVANCED_FACE( '', ( #102 ), #103, .T. );
#81 = ADVANCED_FACE( '', ( #104, #105, #106 ), #107, .F. );
#82 = ADVANCED_FACE( '', ( #108 ), #109, .T. );
#83 = ADVANCED_FACE( '', ( #110 ), #111, .T. );
#84 = ADVANCED_FACE( '', ( #112 ), #113, .T. );
#85 = ADVANCED_FACE( '', ( #114 ), #115, .F. );
#86 = ADVANCED_FACE( '', ( #116 ), #117, .F. );
#87 = ADVANCED_FACE( '', ( #118 ), #119, .F. );
#88 = ADVANCED_FACE( '', ( #120, #121 ), #122, .F. );
#90 = FACE_OUTER_BOUND( '', #123, .T. );
#91 = PLANE( '', #124 );
#92 = FACE_OUTER_BOUND( '', #125, .T. );
#93 = CYLINDRICAL_SURFACE( '', #126, 8.50000000000000 );
#94 = FACE_OUTER_BOUND( '', #127, .T. );
#95 = PLANE( '', #128 );
#96 = FACE_BOUND( '', #129, .T. );
#97 = FACE_BOUND( '', #130, .T. );
#98 = FACE_OUTER_BOUND( '', #131, .T. );
#99 = PLANE( '', #132 );
#100 = FACE_OUTER_BOUND( '', #133, .T. );
#101 = PLANE( '', #134 );
#102 = FACE_OUTER_BOUND( '', #135, .T. );
#103 = PLANE( '', #136 );
#104 = FACE_BOUND( '', #137, .T. );
#105 = FACE_BOUND( '', #138, .T. );
#106 = FACE_OUTER_BOUND( '', #139, .T. );
#107 = PLANE( '', #140 );
#108 = FACE_OUTER_BOUND( '', #141, .T. );
#109 = PLANE( '', #142 );
#110 = FACE_OUTER_BOUND( '', #143, .T. );
#111 = PLANE( '', #144 );
#112 = FACE_OUTER_BOUND( '', #145, .T. );
#113 = PLANE( '', #146 );
#114 = FACE_OUTER_BOUND( '', #147, .T. );
#115 = PLANE( '', #148 );
#116 = FACE_OUTER_BOUND( '', #149, .T. );
#117 = CYLINDRICAL_SURFACE( '', #150, 8.50000000000000 );
#118 = FACE_OUTER_BOUND( '', #151, .T. );
#119 = PLANE( '', #152 );
#120 = FACE_OUTER_BOUND( '', #153, .T. );
#121 = FACE_OUTER_BOUND( '', #154, .T. );
#122 = CYLINDRICAL_SURFACE( '', #155, 7.00000000000000 );
#123 = EDGE_LOOP( '', ( #156, #157, #158, #159 ) );
#124 = AXIS2_PLACEMENT_3D( '', #160, #161, #162 );
#125 = EDGE_LOOP( '', ( #163, #164, #165, #166 ) );
#126 = AXIS2_PLACEMENT_3D( '', #167, #168, #169 );
#127 = EDGE_LOOP( '', ( #170, #171, #172, #173 ) );
#128 = AXIS2_PLACEMENT_3D( '', #174, #175, #176 );
#129 = EDGE_LOOP( '', ( #177 ) );
#130 = EDGE_LOOP( '', ( #178, #179, #180, #181 ) );
#131 = EDGE_LOOP( '', ( #182, #183, #184, #185, #186, #187 ) );
#132 = AXIS2_PLACEMENT_3D( '', #188, #189, #190 );
#133 = EDGE_LOOP( '', ( #191, #192, #193, #194 ) );
#134 = AXIS2_PLACEMENT_3D( '', #195, #196, #197 );
#135 = EDGE_LOOP( '', ( #198, #199, #200, #201, #202 ) );
#136 = AXIS2_PLACEMENT_3D( '', #203, #204, #205 );
#137 = EDGE_LOOP( '', ( #206 ) );
#138 = EDGE_LOOP( '', ( #207, #208, #209, #210 ) );
#139 = EDGE_LOOP( '', ( #211, #212, #213, #214, #215, #216 ) );
#140 = AXIS2_PLACEMENT_3D( '', #217, #218, #219 );
#141 = EDGE_LOOP( '', ( #220, #221, #222, #223 ) );
#142 = AXIS2_PLACEMENT_3D( '', #224, #225, #226 );
#143 = EDGE_LOOP( '', ( #227, #228, #229, #230, #231 ) );
#144 = AXIS2_PLACEMENT_3D( '', #232, #233, #234 );
#145 = EDGE_LOOP( '', ( #235, #236, #237, #238 ) );
#146 = AXIS2_PLACEMENT_3D( '', #239, #240, #241 );
#147 = EDGE_LOOP( '', ( #242, #243, #244, #245 ) );
#148 = AXIS2_PLACEMENT_3D( '', #246, #247, #248 );
#149 = EDGE_LOOP( '', ( #249, #250, #251, #252 ) );
#150 = AXIS2_PLACEMENT_3D( '', #253, #254, #255 );
#151 = EDGE_LOOP( '', ( #256, #257, #258, #259 ) );
#152 = AXIS2_PLACEMENT_3D( '', #260, #261, #262 );
#153 = EDGE_LOOP( '', ( #263 ) );
#154 = EDGE_LOOP( '', ( #264 ) );
#155 = AXIS2_PLACEMENT_3D( '', #265, #266, #267 );
#156 = ORIENTED_EDGE( '', *, *, #268, .F. );
#157 = ORIENTED_EDGE( '', *, *, #269, .F. );
#158 = ORIENTED_EDGE( '', *, *, #270, .T. );
#159 = ORIENTED_EDGE( '', *, *, #271, .T. );
#160 = CARTESIAN_POINT( '', ( -40.0000000000000, 19.0000000000000, 19.0000000000000 ) );
#161 = DIRECTION( '', ( -1.00000000000000, -1.82602471155454E-016, 0.000000000000000 ) );
#162 = DIRECTION( '', ( 1.82602471155453E-016, -1.00000000000000, 0.000000000000000 ) );
#163 = ORIENTED_EDGE( '', *, *, #272, .T. );
#164 = ORIENTED_EDGE( '', *, *, #273, .F. );
#165 = ORIENTED_EDGE( '', *, *, #274, .F. );
#166 = ORIENTED_EDGE( '', *, *, #275, .T. );
#167 = CARTESIAN_POINT( '', ( -6.93889390390723E-015, 0.000000000000000, 19.0000000000000 ) );
#168 = DIRECTION( '', ( -0.000000000000000, -0.000000000000000, 1.00000000000000 ) );
#169 = DIRECTION( '', ( -1.00000000000000, 0.000000000000000, 0.000000000000000 ) );
#170 = ORIENTED_EDGE( '', *, *, #276, .T. );
#171 = ORIENTED_EDGE( '', *, *, #277, .F. );
#172 = ORIENTED_EDGE( '', *, *, #278, .F. );
#173 = ORIENTED_EDGE( '', *, *, #273, .T. );
#174 = CARTESIAN_POINT( '', ( -6.93889390390723E-015, 8.50000000000000, 19.0000000000000 ) );
#175 = DIRECTION( '', ( 2.04085114820801E-016, 1.00000000000000, 0.000000000000000 ) );
#176 = DIRECTION( '', ( -1.00000000000000, 2.04085114820801E-016, 0.000000000000000 ) );
#177 = ORIENTED_EDGE( '', *, *, #279, .T. );
#178 = ORIENTED_EDGE( '', *, *, #274, .T. );
#179 = ORIENTED_EDGE( '', *, *, #278, .T. );
#180 = ORIENTED_EDGE( '', *, *, #280, .T. );
#181 = ORIENTED_EDGE( '', *, *, #281, .T. );
#182 = ORIENTED_EDGE( '', *, *, #282, .T. );
#183 = ORIENTED_EDGE( '', *, *, #283, .F. );
#184 = ORIENTED_EDGE( '', *, *, #284, .F. );
#185 = ORIENTED_EDGE( '', *, *, #270, .F. );
#186 = ORIENTED_EDGE( '', *, *, #285, .F. );
#187 = ORIENTED_EDGE( '', *, *, #286, .F. );
#188 = CARTESIAN_POINT( '', ( -40.0000000000000, -19.0000000000000, 19.0000000000000 ) );
#189 = DIRECTION( '', ( 0.000000000000000, 0.000000000000000, 1.00000000000000 ) );
#190 = DIRECTION( '', ( 1.00000000000000, 0.000000000000000, 0.000000000000000 ) );
#191 = ORIENTED_EDGE( '', *, *, #287, .F. );
#192 = ORIENTED_EDGE( '', *, *, #271, .F. );
#193 = ORIENTED_EDGE( '', *, *, #284, .T. );
#194 = ORIENTED_EDGE( '', *, *, #288, .T. );
#195 = CARTESIAN_POINT( '', ( -40.0000000000000, 19.0000000000000, 19.0000000000000 ) );
#196 = DIRECTION( '', ( 0.000000000000000, 1.00000000000000, 0.000000000000000 ) );
#197 = DIRECTION( '', ( 0.000000000000000, 0.000000000000000, 1.00000000000000 ) );
#198 = ORIENTED_EDGE( '', *, *, #289, .F. );
#199 = ORIENTED_EDGE( '', *, *, #290, .T. );
#200 = ORIENTED_EDGE( '', *, *, #291, .F. );
#201 = ORIENTED_EDGE( '', *, *, #288, .F. );
#202 = ORIENTED_EDGE( '', *, *, #283, .T. );
#203 = CARTESIAN_POINT( '', ( 22.6794919243113, 19.0000000000000, 19.0000000000000 ) );
#204 = DIRECTION( '', ( 0.500000000000000, 0.866025403784438, 0.000000000000000 ) );
#205 = DIRECTION( '', ( -0.866025403784438, 0.500000000000000, 0.000000000000000 ) );
#206 = ORIENTED_EDGE( '', *, *, #292, .T. );
#207 = ORIENTED_EDGE( '', *, *, #276, .F. );
#208 = ORIENTED_EDGE( '', *, *, #272, .F. );
#209 = ORIENTED_EDGE( '', *, *, #293, .F. );
#210 = ORIENTED_EDGE( '', *, *, #294, .F. );
#211 = ORIENTED_EDGE( '', *, *, #268, .T. );
#212 = ORIENTED_EDGE( '', *, *, #287, .T. );
#213 = ORIENTED_EDGE( '', *, *, #291, .T. );
#214 = ORIENTED_EDGE( '', *, *, #295, .T. );
#215 = ORIENTED_EDGE( '', *, *, #296, .T. );
#216 = ORIENTED_EDGE( '', *, *, #297, .T. );
#217 = CARTESIAN_POINT( '', ( -40.0000000000000, -19.0000000000000, 0.000000000000000 ) );
#218 = DIRECTION( '', ( 0.000000000000000, 0.000000000000000, 1.00000000000000 ) );
#219 = DIRECTION( '', ( 1.00000000000000, 0.000000000000000, 0.000000000000000 ) );
#220 = ORIENTED_EDGE( '', *, *, #298, .F. );
#221 = ORIENTED_EDGE( '', *, *, #299, .T. );
#222 = ORIENTED_EDGE( '', *, *, #295, .F. );
#223 = ORIENTED_EDGE( '', *, *, #290, .F. );
#224 = CARTESIAN_POINT( '', ( 40.0000000000000, 9.00000000000000, 19.0000000000000 ) );
#225 = DIRECTION( '', ( 1.00000000000000, 0.000000000000000, 0.000000000000000 ) );
#226 = DIRECTION( '', ( 0.000000000000000, 0.000000000000000, -1.00000000000000 ) );
#227 = ORIENTED_EDGE( '', *, *, #300, .F. );
#228 = ORIENTED_EDGE( '', *, *, #286, .T. );
#229 = ORIENTED_EDGE( '', *, *, #301, .T. );
#230 = ORIENTED_EDGE( '', *, *, #296, .F. );
#231 = ORIENTED_EDGE( '', *, *, #299, .F. );
#232 = CARTESIAN_POINT( '', ( 40.0000000000000, -9.00000000000000, 19.0000000000000 ) );
#233 = DIRECTION( '', ( 0.500000000000001, -0.866025403784438, 0.000000000000000 ) );
#234 = DIRECTION( '', ( 0.866025403784438, 0.500000000000001, 0.000000000000000 ) );
#235 = ORIENTED_EDGE( '', *, *, #297, .F. );
#236 = ORIENTED_EDGE( '', *, *, #301, .F. );
#237 = ORIENTED_EDGE( '', *, *, #285, .T. );
#238 = ORIENTED_EDGE( '', *, *, #269, .T. );
#239 = CARTESIAN_POINT( '', ( 22.6794919243114, -19.0000000000000, 19.0000000000000 ) );
#240 = DIRECTION( '', ( 1.10704373805172E-016, -1.00000000000000, 0.000000000000000 ) );
#241 = DIRECTION( '', ( 1.00000000000000, 1.10704373805172E-016, 0.000000000000000 ) );
#242 = ORIENTED_EDGE( '', *, *, #289, .T. );
#243 = ORIENTED_EDGE( '', *, *, #282, .F. );
#244 = ORIENTED_EDGE( '', *, *, #300, .T. );
#245 = ORIENTED_EDGE( '', *, *, #298, .T. );
#246 = CARTESIAN_POINT( '', ( 29.6076951545868, -19.0000000000000, 19.0000000000000 ) );
#247 = DIRECTION( '', ( -0.500000000000000, 0.000000000000000, -0.866025403784439 ) );
#248 = DIRECTION( '', ( -0.866025403784439, 0.000000000000000, 0.500000000000000 ) );
#249 = ORIENTED_EDGE( '', *, *, #294, .T. );
#250 = ORIENTED_EDGE( '', *, *, #302, .F. );
#251 = ORIENTED_EDGE( '', *, *, #280, .F. );
#252 = ORIENTED_EDGE( '', *, *, #277, .T. );
#253 = CARTESIAN_POINT( '', ( 17.0000000000000, 0.000000000000000, 19.0000000000000 ) );
#254 = DIRECTION( '', ( -0.000000000000000, -0.000000000000000, 1.00000000000000 ) );
#255 = DIRECTION( '', ( -1.00000000000000, 0.000000000000000, 0.000000000000000 ) );
#256 = ORIENTED_EDGE( '', *, *, #293, .T. );
#257 = ORIENTED_EDGE( '', *, *, #275, .F. );
#258 = ORIENTED_EDGE( '', *, *, #281, .F. );
#259 = ORIENTED_EDGE( '', *, *, #302, .T. );
#260 = CARTESIAN_POINT( '', ( 17.0000000000000, -8.50000000000000, 19.0000000000000 ) );
#261 = DIRECTION( '', ( 1.02042557410400E-016, -1.00000000000000, 0.000000000000000 ) );
#262 = DIRECTION( '', ( 1.00000000000000, 1.02042557410400E-016, 0.000000000000000 ) );
#263 = ORIENTED_EDGE( '', *, *, #279, .F. );
#264 = ORIENTED_EDGE( '', *, *, #292, .F. );
#265 = CARTESIAN_POINT( '', ( -25.0000000000000, 0.000000000000000, 19.0000000000000 ) );
#266 = DIRECTION( '', ( -0.000000000000000, -0.000000000000000, 1.00000000000000 ) );
#267 = DIRECTION( '', ( 0.000000000000000, -1.00000000000000, 0.000000000000000 ) );
#268 = EDGE_CURVE( '', #303, #304, #305, .T. );
#269 = EDGE_CURVE( '', #306, #303, #307, .T. );
#270 = EDGE_CURVE( '', #306, #308, #309, .T. );
#271 = EDGE_CURVE( '', #308, #304, #310, .T. );
#272 = EDGE_CURVE( '', #311, #312, #313, .T. );
#273 = EDGE_CURVE( '', #314, #312, #315, .T. );
#274 = EDGE_CURVE( '', #316, #314, #317, .T. );
#275 = EDGE_CURVE( '', #316, #311, #318, .T. );
#276 = EDGE_CURVE( '', #312, #319, #320, .T. );
#277 = EDGE_CURVE( '', #321, #319, #322, .T. );
#278 = EDGE_CURVE( '', #314, #321, #323, .T. );
#279 = EDGE_CURVE( '', #324, #324, #325, .T. );
#280 = EDGE_CURVE( '', #321, #326, #327, .T. );
#281 = EDGE_CURVE( '', #326, #316, #328, .T. );
#282 = EDGE_CURVE( '', #329, #330, #331, .T. );
#283 = EDGE_CURVE( '', #332, #330, #333, .T. );
#284 = EDGE_CURVE( '', #308, #332, #334, .T. );
#285 = EDGE_CURVE( '', #335, #306, #336, .T. );
#286 = EDGE_CURVE( '', #329, #335, #337, .T. );
#287 = EDGE_CURVE( '', #304, #338, #339, .T. );
#288 = EDGE_CURVE( '', #332, #338, #340, .T. );
#289 = EDGE_CURVE( '', #341, #330, #342, .T. );
#290 = EDGE_CURVE( '', #341, #343, #344, .T. );
#291 = EDGE_CURVE( '', #338, #343, #345, .T. );
#292 = EDGE_CURVE( '', #346, #346, #347, .T. );
#293 = EDGE_CURVE( '', #348, #311, #349, .T. );
#294 = EDGE_CURVE( '', #319, #348, #350, .T. );
#295 = EDGE_CURVE( '', #343, #351, #352, .T. );
#296 = EDGE_CURVE( '', #351, #353, #354, .T. );
#297 = EDGE_CURVE( '', #353, #303, #355, .T. );
#298 = EDGE_CURVE( '', #356, #341, #357, .T. );
#299 = EDGE_CURVE( '', #356, #351, #358, .T. );
#300 = EDGE_CURVE( '', #329, #356, #359, .T. );
#301 = EDGE_CURVE( '', #335, #353, #360, .T. );
#302 = EDGE_CURVE( '', #326, #348, #361, .T. );
#303 = VERTEX_POINT( '', #362 );
#304 = VERTEX_POINT( '', #363 );
#305 = LINE( '', #364, #365 );
#306 = VERTEX_POINT( '', #366 );
#307 = LINE( '', #367, #368 );
#308 = VERTEX_POINT( '', #369 );
#309 = LINE( '', #370, #371 );
#310 = LINE( '', #372, #373 );
#311 = VERTEX_POINT( '', #374 );
#312 = VERTEX_POINT( '', #375 );
#313 = CIRCLE( '', #376, 8.50000000000000 );
#314 = VERTEX_POINT( '', #377 );
#315 = LINE( '', #378, #379 );
#316 = VERTEX_POINT( '', #380 );
#317 = CIRCLE( '', #381, 8.50000000000000 );
#318 = LINE( '', #382, #383 );
#319 = VERTEX_POINT( '', #384 );
#320 = LINE( '', #385, #386 );
#321 = VERTEX_POINT( '', #387 );
#322 = LINE( '', #388, #389 );
#323 = LINE( '', #390, #391 );
#324 = VERTEX_POINT( '', #392 );
#325 = CIRCLE( '', #393, 7.00000000000000 );
#326 = VERTEX_POINT( '', #394 );
#327 = CIRCLE( '', #395, 8.50000000000000 );
#328 = LINE( '', #396, #397 );
#329 = VERTEX_POINT( '', #398 );
#330 = VERTEX_POINT( '', #399 );
#331 = LINE( '', #400, #401 );
#332 = VERTEX_POINT( '', #402 );
#333 = LINE( '', #403, #404 );
#334 = LINE( '', #405, #406 );
#335 = VERTEX_POINT( '', #407 );
#336 = LINE( '', #408, #409 );
#337 = LINE( '', #410, #411 );
#338 = VERTEX_POINT( '', #412 );
#339 = LINE( '', #413, #414 );
#340 = LINE( '', #415, #416 );
#341 = VERTEX_POINT( '', #417 );
#342 = LINE( '', #418, #419 );
#343 = VERTEX_POINT( '', #420 );
#344 = LINE( '', #421, #422 );
#345 = LINE( '', #423, #424 );
#346 = VERTEX_POINT( '', #425 );
#347 = CIRCLE( '', #426, 7.00000000000000 );
#348 = VERTEX_POINT( '', #427 );
#349 = LINE( '', #428, #429 );
#350 = CIRCLE( '', #430, 8.50000000000000 );
#351 = VERTEX_POINT( '', #431 );
#352 = LINE( '', #432, #433 );
#353 = VERTEX_POINT( '', #434 );
#354 = LINE( '', #435, #436 );
#355 = LINE( '', #437, #438 );
#356 = VERTEX_POINT( '', #439 );
#357 = LINE( '', #440, #441 );
#358 = LINE( '', #442, #443 );
#359 = LINE( '', #444, #445 );
#360 = LINE( '', #446, #447 );
#361 = LINE( '', #448, #449 );
#362 = CARTESIAN_POINT( '', ( -40.0000000000000, -19.0000000000000, 0.000000000000000 ) );
#363 = CARTESIAN_POINT( '', ( -40.0000000000000, 19.0000000000000, 0.000000000000000 ) );
#364 = CARTESIAN_POINT( '', ( -40.0000000000000, 19.0000000000000, 0.000000000000000 ) );
#365 = VECTOR( '', #450, 1000.00000000000 );
#366 = CARTESIAN_POINT( '', ( -40.0000000000000, -19.0000000000000, 19.0000000000000 ) );
#367 = CARTESIAN_POINT( '', ( -40.0000000000000, -19.0000000000000, 19.0000000000000 ) );
#368 = VECTOR( '', #451, 1000.00000000000 );
#369 = CARTESIAN_POINT( '', ( -40.0000000000000, 19.0000000000000, 19.0000000000000 ) );
#370 = CARTESIAN_POINT( '', ( -40.0000000000000, 19.0000000000000, 19.0000000000000 ) );
#371 = VECTOR( '', #452, 1000.00000000000 );
#372 = CARTESIAN_POINT( '', ( -40.0000000000000, 19.0000000000000, 19.0000000000000 ) );
#373 = VECTOR( '', #453, 1000.00000000000 );
#374 = CARTESIAN_POINT( '', ( -6.93889390390723E-015, -8.50000000000000, 0.000000000000000 ) );
#375 = CARTESIAN_POINT( '', ( -6.93889390390723E-015, 8.50000000000000, 0.000000000000000 ) );
#376 = AXIS2_PLACEMENT_3D( '', #454, #455, #456 );
#377 = CARTESIAN_POINT( '', ( -6.93889390390723E-015, 8.50000000000000, 19.0000000000000 ) );
#378 = CARTESIAN_POINT( '', ( -6.93889390390723E-015, 8.50000000000000, 19.0000000000000 ) );
#379 = VECTOR( '', #457, 1000.00000000000 );
#380 = CARTESIAN_POINT( '', ( -6.93889390390723E-015, -8.50000000000000, 19.0000000000000 ) );
#381 = AXIS2_PLACEMENT_3D( '', #458, #459, #460 );
#382 = CARTESIAN_POINT( '', ( -6.93889390390723E-015, -8.50000000000000, 19.0000000000000 ) );
#383 = VECTOR( '', #461, 1000.00000000000 );
#384 = CARTESIAN_POINT( '', ( 17.0000000000000, 8.50000000000000, 0.000000000000000 ) );
#385 = CARTESIAN_POINT( '', ( -6.93889390390723E-015, 8.50000000000000, 0.000000000000000 ) );
#386 = VECTOR( '', #462, 1000.00000000000 );
#387 = CARTESIAN_POINT( '', ( 17.0000000000000, 8.50000000000000, 19.0000000000000 ) );
#388 = CARTESIAN_POINT( '', ( 17.0000000000000, 8.50000000000000, 19.0000000000000 ) );
#389 = VECTOR( '', #463, 1000.00000000000 );
#390 = CARTESIAN_POINT( '', ( -6.93889390390723E-015, 8.50000000000000, 19.0000000000000 ) );
#391 = VECTOR( '', #464, 1000.00000000000 );
#392 = CARTESIAN_POINT( '', ( -25.0000000000000, -7.00000000000000, 19.0000000000000 ) );
#393 = AXIS2_PLACEMENT_3D( '', #465, #466, #467 );
#394 = CARTESIAN_POINT( '', ( 17.0000000000000, -8.50000000000000, 19.0000000000000 ) );
#395 = AXIS2_PLACEMENT_3D( '', #468, #469, #470 );
#396 = CARTESIAN_POINT( '', ( 17.0000000000000, -8.50000000000000, 19.0000000000000 ) );
#397 = VECTOR( '', #471, 1000.00000000000 );
#398 = CARTESIAN_POINT( '', ( 29.6076951545868, -15.0000000000000, 19.0000000000000 ) );
#399 = CARTESIAN_POINT( '', ( 29.6076951545868, 15.0000000000000, 19.0000000000000 ) );
#400 = CARTESIAN_POINT( '', ( 29.6076951545868, -19.0000000000000, 19.0000000000000 ) );
#401 = VECTOR( '', #472, 1000.00000000000 );
#402 = CARTESIAN_POINT( '', ( 22.6794919243113, 19.0000000000000, 19.0000000000000 ) );
#403 = CARTESIAN_POINT( '', ( 22.6794919243113, 19.0000000000000, 19.0000000000000 ) );
#404 = VECTOR( '', #473, 999.999999999999 );
#405 = CARTESIAN_POINT( '', ( -40.0000000000000, 19.0000000000000, 19.0000000000000 ) );
#406 = VECTOR( '', #474, 1000.00000000000 );
#407 = CARTESIAN_POINT( '', ( 22.6794919243114, -19.0000000000000, 19.0000000000000 ) );
#408 = CARTESIAN_POINT( '', ( 22.6794919243114, -19.0000000000000, 19.0000000000000 ) );
#409 = VECTOR( '', #475, 1000.00000000000 );
#410 = CARTESIAN_POINT( '', ( 40.0000000000000, -9.00000000000000, 19.0000000000000 ) );
#411 = VECTOR( '', #476, 999.999999999999 );
#412 = CARTESIAN_POINT( '', ( 22.6794919243113, 19.0000000000000, 0.000000000000000 ) );
#413 = CARTESIAN_POINT( '', ( -40.0000000000000, 19.0000000000000, 0.000000000000000 ) );
#414 = VECTOR( '', #477, 1000.00000000000 );
#415 = CARTESIAN_POINT( '', ( 22.6794919243113, 19.0000000000000, 19.0000000000000 ) );
#416 = VECTOR( '', #478, 1000.00000000000 );
#417 = CARTESIAN_POINT( '', ( 40.0000000000000, 9.00000000000000, 13.0000000000000 ) );
#418 = CARTESIAN_POINT( '', ( 24.0651325703664, 18.2000000000000, 22.2000000000000 ) );
#419 = VECTOR( '', #479, 1000.00000000000 );
#420 = CARTESIAN_POINT( '', ( 40.0000000000000, 9.00000000000000, 0.000000000000000 ) );
#421 = CARTESIAN_POINT( '', ( 40.0000000000000, 9.00000000000000, 19.0000000000000 ) );
#422 = VECTOR( '', #480, 1000.00000000000 );
#423 = CARTESIAN_POINT( '', ( 22.6794919243113, 19.0000000000000, 0.000000000000000 ) );
#424 = VECTOR( '', #481, 999.999999999999 );
#425 = CARTESIAN_POINT( '', ( -18.0000000000000, 0.000000000000000, 0.000000000000000 ) );
#426 = AXIS2_PLACEMENT_3D( '', #482, #483, #484 );
#427 = CARTESIAN_POINT( '', ( 17.0000000000000, -8.50000000000000, 0.000000000000000 ) );
#428 = CARTESIAN_POINT( '', ( 17.0000000000000, -8.50000000000000, 0.000000000000000 ) );
#429 = VECTOR( '', #485, 1000.00000000000 );
#430 = AXIS2_PLACEMENT_3D( '', #486, #487, #488 );
#431 = CARTESIAN_POINT( '', ( 40.0000000000000, -9.00000000000000, 0.000000000000000 ) );
#432 = CARTESIAN_POINT( '', ( 40.0000000000000, 9.00000000000000, 0.000000000000000 ) );
#433 = VECTOR( '', #489, 1000.00000000000 );
#434 = CARTESIAN_POINT( '', ( 22.6794919243114, -19.0000000000000, 0.000000000000000 ) );
#435 = CARTESIAN_POINT( '', ( 40.0000000000000, -9.00000000000000, 0.000000000000000 ) );
#436 = VECTOR( '', #490, 999.999999999999 );
#437 = CARTESIAN_POINT( '', ( 22.6794919243114, -19.0000000000000, 0.000000000000000 ) );
#438 = VECTOR( '', #491, 1000.00000000000 );
#439 = CARTESIAN_POINT( '', ( 40.0000000000000, -9.00000000000000, 13.0000000000000 ) );
#440 = CARTESIAN_POINT( '', ( 40.0000000000000, -19.0000000000000, 13.0000000000000 ) );
#441 = VECTOR( '', #492, 1000.00000000000 );
#442 = CARTESIAN_POINT( '', ( 40.0000000000000, -9.00000000000000, 19.0000000000000 ) );
#443 = VECTOR( '', #493, 1000.00000000000 );
#444 = CARTESIAN_POINT( '', ( 37.9215390309174, -10.2000000000000, 14.2000000000000 ) );
#445 = VECTOR( '', #494, 1000.00000000000 );
#446 = CARTESIAN_POINT( '', ( 22.6794919243114, -19.0000000000000, 19.0000000000000 ) );
#447 = VECTOR( '', #495, 1000.00000000000 );
#448 = CARTESIAN_POINT( '', ( 17.0000000000000, -8.50000000000000, 19.0000000000000 ) );
#449 = VECTOR( '', #496, 1000.00000000000 );
#450 = DIRECTION( '', ( -1.82602471155453E-016, 1.00000000000000, 0.000000000000000 ) );
#451 = DIRECTION( '', ( 0.000000000000000, 0.000000000000000, -1.00000000000000 ) );
#452 = DIRECTION( '', ( -1.82602471155453E-016, 1.00000000000000, 0.000000000000000 ) );
#453 = DIRECTION( '', ( 0.000000000000000, 0.000000000000000, -1.00000000000000 ) );
#454 = CARTESIAN_POINT( '', ( -6.93889390390723E-015, 0.000000000000000, 0.000000000000000 ) );
#455 = DIRECTION( '', ( 0.000000000000000, 0.000000000000000, -1.00000000000000 ) );
#456 = DIRECTION( '', ( 1.00000000000000, 0.000000000000000, 0.000000000000000 ) );
#457 = DIRECTION( '', ( 0.000000000000000, 0.000000000000000, -1.00000000000000 ) );
#458 = CARTESIAN_POINT( '', ( -6.93889390390723E-015, 0.000000000000000, 19.0000000000000 ) );
#459 = DIRECTION( '', ( 0.000000000000000, 0.000000000000000, -1.00000000000000 ) );
#460 = DIRECTION( '', ( 1.00000000000000, 0.000000000000000, 0.000000000000000 ) );
#461 = DIRECTION( '', ( 0.000000000000000, 0.000000000000000, -1.00000000000000 ) );
#462 = DIRECTION( '', ( 1.00000000000000, -2.04085114820801E-016, 0.000000000000000 ) );
#463 = DIRECTION( '', ( 0.000000000000000, 0.000000000000000, -1.00000000000000 ) );
#464 = DIRECTION( '', ( 1.00000000000000, -2.04085114820801E-016, 0.000000000000000 ) );
#465 = CARTESIAN_POINT( '', ( -25.0000000000000, 0.000000000000000, 19.0000000000000 ) );
#466 = DIRECTION( '', ( 0.000000000000000, 0.000000000000000, -1.00000000000000 ) );
#467 = DIRECTION( '', ( 0.000000000000000, -1.00000000000000, 0.000000000000000 ) );
#468 = CARTESIAN_POINT( '', ( 17.0000000000000, 0.000000000000000, 19.0000000000000 ) );
#469 = DIRECTION( '', ( 0.000000000000000, 0.000000000000000, -1.00000000000000 ) );
#470 = DIRECTION( '', ( -1.00000000000000, 0.000000000000000, 0.000000000000000 ) );
#471 = DIRECTION( '', ( -1.00000000000000, -1.02042557410400E-016, 0.000000000000000 ) );
#472 = DIRECTION( '', ( 0.000000000000000, 1.00000000000000, 0.000000000000000 ) );
#473 = DIRECTION( '', ( 0.866025403784438, -0.500000000000000, 0.000000000000000 ) );
#474 = DIRECTION( '', ( 1.00000000000000, 0.000000000000000, 0.000000000000000 ) );
#475 = DIRECTION( '', ( -1.00000000000000, -1.10704373805172E-016, 0.000000000000000 ) );
#476 = DIRECTION( '', ( -0.866025403784438, -0.500000000000001, 0.000000000000000 ) );
#477 = DIRECTION( '', ( 1.00000000000000, 0.000000000000000, 0.000000000000000 ) );
#478 = DIRECTION( '', ( 0.000000000000000, 0.000000000000000, -1.00000000000000 ) );
#479 = DIRECTION( '', ( -0.774596669241483, 0.447213595499959, 0.447213595499958 ) );
#480 = DIRECTION( '', ( 0.000000000000000, 0.000000000000000, -1.00000000000000 ) );
#481 = DIRECTION( '', ( 0.866025403784438, -0.500000000000000, 0.000000000000000 ) );
#482 = CARTESIAN_POINT( '', ( -25.0000000000000, 0.000000000000000, 0.000000000000000 ) );
#483 = DIRECTION( '', ( 0.000000000000000, 0.000000000000000, 1.00000000000000 ) );
#484 = DIRECTION( '', ( 1.00000000000000, 0.000000000000000, 0.000000000000000 ) );
#485 = DIRECTION( '', ( -1.00000000000000, -1.02042557410400E-016, 0.000000000000000 ) );
#486 = CARTESIAN_POINT( '', ( 17.0000000000000, 0.000000000000000, 0.000000000000000 ) );
#487 = DIRECTION( '', ( 0.000000000000000, 0.000000000000000, -1.00000000000000 ) );
#488 = DIRECTION( '', ( -1.00000000000000, 0.000000000000000, 0.000000000000000 ) );
#489 = DIRECTION( '', ( 0.000000000000000, -1.00000000000000, 0.000000000000000 ) );
#490 = DIRECTION( '', ( -0.866025403784438, -0.500000000000001, 0.000000000000000 ) );
#491 = DIRECTION( '', ( -1.00000000000000, -1.10704373805172E-016, 0.000000000000000 ) );
#492 = DIRECTION( '', ( 0.000000000000000, 1.00000000000000, 0.000000000000000 ) );
#493 = DIRECTION( '', ( 0.000000000000000, 0.000000000000000, -1.00000000000000 ) );
#494 = DIRECTION( '', ( 0.774596669241482, 0.447213595499960, -0.447213595499958 ) );
#495 = DIRECTION( '', ( 0.000000000000000, 0.000000000000000, -1.00000000000000 ) );
#496 = DIRECTION( '', ( 0.000000000000000, 0.000000000000000, -1.00000000000000 ) );
ENDSEC;
END-ISO-10303-21;
