ISO-10303-21;
HEADER;
FILE_DESCRIPTION( ( 'Unknown' ), '1' );
FILE_NAME( 'f:/¼È¦s/CP/CP24-3D/CP24-1230.stp', 'Unknown', ( 'Unknown' ), ( 'Unknown' ), 'XStep 1.0', 'Unknown', '  ' );
FILE_SCHEMA( ( 'CONFIG_CONTROL_DESIGN' ) );
ENDSEC;
DATA;
#1 = DESIGN_CONTEXT( '', #27, 'design' );
#2 = APPLICATION_PROTOCOL_DEFINITION( 'INTERNATIONAL STANDARD', 'config_control_design', 1994, #27 );
#3 = PRODUCT_CATEGORY_RELATIONSHIP( 'NONE', 'NONE', #28, #29 );
#4 = DATE_AND_TIME( #30, #31 );
#5 = DATE_TIME_ROLE( 'creation_date' );
#6 = DATE_TIME_ROLE( 'classification_date' );
#7 = PERSON_AND_ORGANIZATION_ROLE( 'creator' );
#8 = PERSON_AND_ORGANIZATION_ROLE( 'design_supplier' );
#9 = PERSON_AND_ORGANIZATION_ROLE( 'classification_officer' );
#10 = PERSON_AND_ORGANIZATION_ROLE( 'design_owner' );
#11 = APPROVAL_PERSON_ORGANIZATION( #32, #33, #34 );
#12 = APPROVAL_DATE_TIME( #4, #33 );
#13 = CC_DESIGN_APPROVAL( #33, ( #35, #36, #37 ) );
#14 = CC_DESIGN_DATE_AND_TIME_ASSIGNMENT( #4, #5, ( #37 ) );
#15 = CC_DESIGN_DATE_AND_TIME_ASSIGNMENT( #4, #6, ( #35 ) );
#16 = CC_DESIGN_PERSON_AND_ORGANIZATION_ASSIGNMENT( #32, #10, ( #38 ) );
#17 = CC_DESIGN_PERSON_AND_ORGANIZATION_ASSIGNMENT( #32, #7, ( #37 ) );
#18 = CC_DESIGN_PERSON_AND_ORGANIZATION_ASSIGNMENT( #32, #7, ( #36 ) );
#19 = CC_DESIGN_PERSON_AND_ORGANIZATION_ASSIGNMENT( #32, #8, ( #36 ) );
#20 = CC_DESIGN_SECURITY_CLASSIFICATION( #35, ( #36 ) );
#21 = CC_DESIGN_PERSON_AND_ORGANIZATION_ASSIGNMENT( #32, #9, ( #35 ) );
#22 = SHAPE_DEFINITION_REPRESENTATION( #39, #40 );
#23 =  ( GEOMETRIC_REPRESENTATION_CONTEXT( 3 )GLOBAL_UNCERTAINTY_ASSIGNED_CONTEXT( ( #43 ) )GLOBAL_UNIT_ASSIGNED_CONTEXT( ( #45, #46, #47 ) )REPRESENTATION_CONTEXT( 'NONE', 'WORKSPACE' ) );
#27 = APPLICATION_CONTEXT( 'CONFIGURATION CONTROLLED 3D DESIGNS OF MECHANICAL PARTS AND ASSEMBLIES' );
#28 = PRODUCT_CATEGORY( 'part', 'NONE' );
#29 = PRODUCT_RELATED_PRODUCT_CATEGORY( 'detail', ' ', ( #38 ) );
#30 = CALENDAR_DATE( 2009, 9, 10 );
#31 = LOCAL_TIME( 9, 54, 12.0000000000000, #49 );
#32 = PERSON_AND_ORGANIZATION( #50, #51 );
#33 = APPROVAL( #52, 'SOLID MODEL' );
#34 = APPROVAL_ROLE( 'APPROVED' );
#35 = SECURITY_CLASSIFICATION( '', '', #53 );
#36 = PRODUCT_DEFINITION_FORMATION_WITH_SPECIFIED_SOURCE( ' ', 'NONE', #38, .NOT_KNOWN. );
#37 = PRODUCT_DEFINITION( 'NONE', 'NONE', #36, #1 );
#38 = PRODUCT( '1', '1', 'PART-1-DESC', ( #54 ) );
#39 = PRODUCT_DEFINITION_SHAPE( 'NONE', 'NONE', #37 );
#40 = ADVANCED_BREP_SHAPE_REPRESENTATION( '1', ( #55, #56 ), #23 );
#43 = UNCERTAINTY_MEASURE_WITH_UNIT( LENGTH_MEASURE( 0.00100000000000000 ), #45, '', '' );
#45 =  ( CONVERSION_BASED_UNIT( 'MILLIMETRE', #59 )LENGTH_UNIT(  )NAMED_UNIT( #62 ) );
#46 =  ( NAMED_UNIT( #64 )PLANE_ANGLE_UNIT(  )SI_UNIT( $, .RADIAN. ) );
#47 =  ( NAMED_UNIT( #64 )SOLID_ANGLE_UNIT(  )SI_UNIT( $, .STERADIAN. ) );
#49 = COORDINATED_UNIVERSAL_TIME_OFFSET( 8, 0, .AHEAD. );
#50 = PERSON( '', 'UNSPECIFIED', $, $, $, $ );
#51 = ORGANIZATION( 'UNSPECIFIED', 'UNSPECIFIED', 'UNSPECIFIED' );
#52 = APPROVAL_STATUS( 'approved' );
#53 = SECURITY_CLASSIFICATION_LEVEL( 'unclassified' );
#54 = MECHANICAL_CONTEXT( '', #27, 'mechanical' );
#55 = MANIFOLD_SOLID_BREP( '1', #70 );
#56 = AXIS2_PLACEMENT_3D( '', #71, #72, #73 );
#59 = LENGTH_MEASURE_WITH_UNIT( LENGTH_MEASURE( 1.00000000000000 ), #74 );
#62 = DIMENSIONAL_EXPONENTS( 1.00000000000000, 0.000000000000000, 0.000000000000000, 0.000000000000000, 0.000000000000000, 0.000000000000000, 0.000000000000000 );
#64 = DIMENSIONAL_EXPONENTS( 0.000000000000000, 0.000000000000000, 0.000000000000000, 0.000000000000000, 0.000000000000000, 0.000000000000000, 0.000000000000000 );
#70 = CLOSED_SHELL( '', ( #75, #76, #77, #78, #79, #80, #81 ) );
#71 = CARTESIAN_POINT( '', ( 0.000000000000000, 0.000000000000000, 0.000000000000000 ) );
#72 = DIRECTION( '', ( 0.000000000000000, 0.000000000000000, 1.00000000000000 ) );
#73 = DIRECTION( '', ( 1.00000000000000, 0.000000000000000, 0.000000000000000 ) );
#74 =  ( NAMED_UNIT( #62 )LENGTH_UNIT(  )SI_UNIT( .MILLI., .METRE. ) );
#75 = ADVANCED_FACE( '', ( #83, #84 ), #85, .T. );
#76 = ADVANCED_FACE( '', ( #86, #87 ), #88, .T. );
#77 = ADVANCED_FACE( '', ( #89 ), #90, .T. );
#78 = ADVANCED_FACE( '', ( #91 ), #92, .T. );
#79 = ADVANCED_FACE( '', ( #93 ), #94, .T. );
#80 = ADVANCED_FACE( '', ( #95 ), #96, .T. );
#81 = ADVANCED_FACE( '', ( #97, #98 ), #99, .T. );
#83 = FACE_OUTER_BOUND( '', #100, .T. );
#84 = FACE_BOUND( '', #101, .T. );
#85 = PLANE( '', #102 );
#86 = FACE_OUTER_BOUND( '', #103, .T. );
#87 = FACE_BOUND( '', #104, .T. );
#88 = CONICAL_SURFACE( '', #105, 5.00000000000000, 0.785398163397448 );
#89 = FACE_OUTER_BOUND( '', #106, .T. );
#90 = PLANE( '', #107 );
#91 = FACE_OUTER_BOUND( '', #108, .T. );
#92 = PLANE( '', #109 );
#93 = FACE_OUTER_BOUND( '', #110, .T. );
#94 = CYLINDRICAL_SURFACE( '', #111, 15.0000000000000 );
#95 = FACE_OUTER_BOUND( '', #112, .T. );
#96 = PLANE( '', #113 );
#97 = FACE_OUTER_BOUND( '', #114, .T. );
#98 = FACE_OUTER_BOUND( '', #115, .T. );
#99 = CYLINDRICAL_SURFACE( '', #116, 6.00000000000000 );
#100 = EDGE_LOOP( '', ( #117, #118 ) );
#101 = EDGE_LOOP( '', ( #119 ) );
#102 = AXIS2_PLACEMENT_3D( '', #120, #121, #122 );
#103 = EDGE_LOOP( '', ( #123 ) );
#104 = EDGE_LOOP( '', ( #124 ) );
#105 = AXIS2_PLACEMENT_3D( '', #125, #126, #127 );
#106 = EDGE_LOOP( '', ( #128, #129, #130, #131 ) );
#107 = AXIS2_PLACEMENT_3D( '', #132, #133, #134 );
#108 = EDGE_LOOP( '', ( #135, #136 ) );
#109 = AXIS2_PLACEMENT_3D( '', #137, #138, #139 );
#110 = EDGE_LOOP( '', ( #140, #141, #142, #143 ) );
#111 = AXIS2_PLACEMENT_3D( '', #144, #145, #146 );
#112 = EDGE_LOOP( '', ( #147 ) );
#113 = AXIS2_PLACEMENT_3D( '', #148, #149, #150 );
#114 = EDGE_LOOP( '', ( #151 ) );
#115 = EDGE_LOOP( '', ( #152 ) );
#116 = AXIS2_PLACEMENT_3D( '', #153, #154, #155 );
#117 = ORIENTED_EDGE( '', *, *, #156, .T. );
#118 = ORIENTED_EDGE( '', *, *, #157, .T. );
#119 = ORIENTED_EDGE( '', *, *, #158, .F. );
#120 = CARTESIAN_POINT( '', ( 6.93889390390723E-015, 0.000000000000000, 8.16417239299445E-016 ) );
#121 = DIRECTION( '', ( 0.000000000000000, 0.000000000000000, -1.00000000000000 ) );
#122 = DIRECTION( '', ( -1.00000000000000, 0.000000000000000, 0.000000000000000 ) );
#123 = ORIENTED_EDGE( '', *, *, #159, .F. );
#124 = ORIENTED_EDGE( '', *, *, #160, .F. );
#125 = CARTESIAN_POINT( '', ( 0.000000000000000, 0.000000000000000, -17.8000000000000 ) );
#126 = DIRECTION( '', ( -0.000000000000000, -0.000000000000000, 1.00000000000000 ) );
#127 = DIRECTION( '', ( 1.00000000000000, 0.000000000000000, 0.000000000000000 ) );
#128 = ORIENTED_EDGE( '', *, *, #161, .T. );
#129 = ORIENTED_EDGE( '', *, *, #162, .F. );
#130 = ORIENTED_EDGE( '', *, *, #163, .F. );
#131 = ORIENTED_EDGE( '', *, *, #157, .F. );
#132 = CARTESIAN_POINT( '', ( -6.53834841531101, -13.5000000000000, -34.3704968844029 ) );
#133 = DIRECTION( '', ( 0.000000000000000, -1.00000000000000, 0.000000000000000 ) );
#134 = DIRECTION( '', ( 0.000000000000000, 0.000000000000000, -1.00000000000000 ) );
#135 = ORIENTED_EDGE( '', *, *, #164, .F. );
#136 = ORIENTED_EDGE( '', *, *, #162, .T. );
#137 = CARTESIAN_POINT( '', ( -15.0000000000000, 0.000000000000000, 9.00000000000000 ) );
#138 = DIRECTION( '', ( 0.000000000000000, 0.000000000000000, 1.00000000000000 ) );
#139 = DIRECTION( '', ( 1.00000000000000, 0.000000000000000, 0.000000000000000 ) );
#140 = ORIENTED_EDGE( '', *, *, #156, .F. );
#141 = ORIENTED_EDGE( '', *, *, #163, .T. );
#142 = ORIENTED_EDGE( '', *, *, #164, .T. );
#143 = ORIENTED_EDGE( '', *, *, #161, .F. );
#144 = CARTESIAN_POINT( '', ( 0.000000000000000, 0.000000000000000, 54.0000000000000 ) );
#145 = DIRECTION( '', ( -0.000000000000000, -0.000000000000000, 1.00000000000000 ) );
#146 = DIRECTION( '', ( -1.00000000000000, 0.000000000000000, 0.000000000000000 ) );
#147 = ORIENTED_EDGE( '', *, *, #160, .T. );
#148 = CARTESIAN_POINT( '', ( 0.000000000000000, 0.000000000000000, -17.8000000000000 ) );
#149 = DIRECTION( '', ( 0.000000000000000, 0.000000000000000, -1.00000000000000 ) );
#150 = DIRECTION( '', ( -1.00000000000000, 0.000000000000000, 0.000000000000000 ) );
#151 = ORIENTED_EDGE( '', *, *, #159, .T. );
#152 = ORIENTED_EDGE( '', *, *, #158, .T. );
#153 = CARTESIAN_POINT( '', ( 0.000000000000000, 0.000000000000000, -17.8000000000000 ) );
#154 = DIRECTION( '', ( -0.000000000000000, -0.000000000000000, -1.00000000000000 ) );
#155 = DIRECTION( '', ( 1.00000000000000, 0.000000000000000, 0.000000000000000 ) );
#156 = EDGE_CURVE( '', #165, #166, #167, .T. );
#157 = EDGE_CURVE( '', #166, #165, #168, .T. );
#158 = EDGE_CURVE( '', #169, #169, #170, .T. );
#159 = EDGE_CURVE( '', #171, #171, #172, .F. );
#160 = EDGE_CURVE( '', #173, #173, #174, .T. );
#161 = EDGE_CURVE( '', #166, #175, #176, .T. );
#162 = EDGE_CURVE( '', #177, #175, #178, .T. );
#163 = EDGE_CURVE( '', #165, #177, #179, .T. );
#164 = EDGE_CURVE( '', #177, #175, #180, .T. );
#165 = VERTEX_POINT( '', #181 );
#166 = VERTEX_POINT( '', #182 );
#167 = CIRCLE( '', #183, 15.0000000000000 );
#168 = LINE( '', #184, #185 );
#169 = VERTEX_POINT( '', #186 );
#170 = CIRCLE( '', #187, 6.00000000000000 );
#171 = VERTEX_POINT( '', #188 );
#172 = CIRCLE( '', #189, 6.00000000000000 );
#173 = VERTEX_POINT( '', #190 );
#174 = CIRCLE( '', #191, 5.00000000000000 );
#175 = VERTEX_POINT( '', #192 );
#176 = LINE( '', #193, #194 );
#177 = VERTEX_POINT( '', #195 );
#178 = LINE( '', #196, #197 );
#179 = LINE( '', #198, #199 );
#180 = CIRCLE( '', #200, 15.0000000000000 );
#181 = CARTESIAN_POINT( '', ( -6.53834841531101, -13.5000000000000, 0.000000000000000 ) );
#182 = CARTESIAN_POINT( '', ( 6.53834841531101, -13.5000000000000, 0.000000000000000 ) );
#183 = AXIS2_PLACEMENT_3D( '', #201, #202, #203 );
#184 = CARTESIAN_POINT( '', ( 6.93889390390723E-015, -13.5000000000000, 8.16417239299445E-016 ) );
#185 = VECTOR( '', #204, 1000.00000000000 );
#186 = CARTESIAN_POINT( '', ( 6.00000000000000, 0.000000000000000, 8.16417239299445E-016 ) );
#187 = AXIS2_PLACEMENT_3D( '', #205, #206, #207 );
#188 = CARTESIAN_POINT( '', ( -6.00000000000000, 0.000000000000000, -16.8000000000000 ) );
#189 = AXIS2_PLACEMENT_3D( '', #208, #209, #210 );
#190 = CARTESIAN_POINT( '', ( -5.00000000000000, 0.000000000000000, -17.8000000000000 ) );
#191 = AXIS2_PLACEMENT_3D( '', #211, #212, #213 );
#192 = CARTESIAN_POINT( '', ( 6.53834841531101, -13.5000000000000, 9.00000000000000 ) );
#193 = CARTESIAN_POINT( '', ( 6.53834841531101, -13.5000000000000, -34.3704968844029 ) );
#194 = VECTOR( '', #214, 1000.00000000000 );
#195 = CARTESIAN_POINT( '', ( -6.53834841531101, -13.5000000000000, 9.00000000000000 ) );
#196 = CARTESIAN_POINT( '', ( -6.53834841531101, -13.5000000000000, 9.00000000000000 ) );
#197 = VECTOR( '', #215, 1000.00000000000 );
#198 = CARTESIAN_POINT( '', ( -6.53834841531101, -13.5000000000000, -34.3704968844029 ) );
#199 = VECTOR( '', #216, 1000.00000000000 );
#200 = AXIS2_PLACEMENT_3D( '', #217, #218, #219 );
#201 = CARTESIAN_POINT( '', ( 0.000000000000000, 0.000000000000000, 0.000000000000000 ) );
#202 = DIRECTION( '', ( 0.000000000000000, 0.000000000000000, -1.00000000000000 ) );
#203 = DIRECTION( '', ( -1.00000000000000, 0.000000000000000, 0.000000000000000 ) );
#204 = DIRECTION( '', ( -1.00000000000000, 0.000000000000000, 0.000000000000000 ) );
#205 = CARTESIAN_POINT( '', ( 0.000000000000000, 0.000000000000000, 8.16417239299445E-016 ) );
#206 = DIRECTION( '', ( 0.000000000000000, 0.000000000000000, -1.00000000000000 ) );
#207 = DIRECTION( '', ( 1.00000000000000, 0.000000000000000, 0.000000000000000 ) );
#208 = CARTESIAN_POINT( '', ( 0.000000000000000, 0.000000000000000, -16.8000000000000 ) );
#209 = DIRECTION( '', ( 0.000000000000000, 0.000000000000000, -1.00000000000000 ) );
#210 = DIRECTION( '', ( -1.00000000000000, 0.000000000000000, 0.000000000000000 ) );
#211 = CARTESIAN_POINT( '', ( 0.000000000000000, 0.000000000000000, -17.8000000000000 ) );
#212 = DIRECTION( '', ( 0.000000000000000, 0.000000000000000, -1.00000000000000 ) );
#213 = DIRECTION( '', ( -1.00000000000000, 0.000000000000000, 0.000000000000000 ) );
#214 = DIRECTION( '', ( 0.000000000000000, 0.000000000000000, 1.00000000000000 ) );
#215 = DIRECTION( '', ( 1.00000000000000, 0.000000000000000, 0.000000000000000 ) );
#216 = DIRECTION( '', ( 0.000000000000000, 0.000000000000000, 1.00000000000000 ) );
#217 = CARTESIAN_POINT( '', ( 0.000000000000000, 0.000000000000000, 9.00000000000000 ) );
#218 = DIRECTION( '', ( 0.000000000000000, 0.000000000000000, -1.00000000000000 ) );
#219 = DIRECTION( '', ( -1.00000000000000, 0.000000000000000, 0.000000000000000 ) );
ENDSEC;
END-ISO-10303-21;
