ISO-10303-21;
HEADER;
FILE_DESCRIPTION( ( 'Unknown' ), '1' );
FILE_NAME( 'f:/¼È¦s/PT-3D/PT14-3D/PT14-1220.stp', 'Unknown', ( 'Unknown' ), ( 'Unknown' ), 'XStep 1.0', 'Unknown', '  ' );
FILE_SCHEMA( ( 'CONFIG_CONTROL_DESIGN' ) );
ENDSEC;
DATA;
#1 = DESIGN_CONTEXT( '', #27, 'design' );
#2 = APPLICATION_PROTOCOL_DEFINITION( 'INTERNATIONAL STANDARD', 'config_control_design', 1994, #27 );
#3 = PRODUCT_CATEGORY_RELATIONSHIP( 'NONE', 'NONE', #28, #29 );
#4 = DATE_AND_TIME( #30, #31 );
#5 = DATE_TIME_ROLE( 'creation_date' );
#6 = DATE_TIME_ROLE( 'classification_date' );
#7 = PERSON_AND_ORGANIZATION_ROLE( 'creator' );
#8 = PERSON_AND_ORGANIZATION_ROLE( 'design_supplier' );
#9 = PERSON_AND_ORGANIZATION_ROLE( 'classification_officer' );
#10 = PERSON_AND_ORGANIZATION_ROLE( 'design_owner' );
#11 = APPROVAL_PERSON_ORGANIZATION( #32, #33, #34 );
#12 = APPROVAL_DATE_TIME( #4, #33 );
#13 = CC_DESIGN_APPROVAL( #33, ( #35, #36, #37 ) );
#14 = CC_DESIGN_DATE_AND_TIME_ASSIGNMENT( #4, #5, ( #37 ) );
#15 = CC_DESIGN_DATE_AND_TIME_ASSIGNMENT( #4, #6, ( #35 ) );
#16 = CC_DESIGN_PERSON_AND_ORGANIZATION_ASSIGNMENT( #32, #10, ( #38 ) );
#17 = CC_DESIGN_PERSON_AND_ORGANIZATION_ASSIGNMENT( #32, #7, ( #37 ) );
#18 = CC_DESIGN_PERSON_AND_ORGANIZATION_ASSIGNMENT( #32, #7, ( #36 ) );
#19 = CC_DESIGN_PERSON_AND_ORGANIZATION_ASSIGNMENT( #32, #8, ( #36 ) );
#20 = CC_DESIGN_SECURITY_CLASSIFICATION( #35, ( #36 ) );
#21 = CC_DESIGN_PERSON_AND_ORGANIZATION_ASSIGNMENT( #32, #9, ( #35 ) );
#22 = SHAPE_DEFINITION_REPRESENTATION( #39, #40 );
#23 =  ( GEOMETRIC_REPRESENTATION_CONTEXT( 3 )GLOBAL_UNCERTAINTY_ASSIGNED_CONTEXT( ( #43 ) )GLOBAL_UNIT_ASSIGNED_CONTEXT( ( #45, #46, #47 ) )REPRESENTATION_CONTEXT( 'NONE', 'WORKSPACE' ) );
#27 = APPLICATION_CONTEXT( 'CONFIGURATION CONTROLLED 3D DESIGNS OF MECHANICAL PARTS AND ASSEMBLIES' );
#28 = PRODUCT_CATEGORY( 'part', 'NONE' );
#29 = PRODUCT_RELATED_PRODUCT_CATEGORY( 'detail', ' ', ( #38 ) );
#30 = CALENDAR_DATE( 2009, 9, 10 );
#31 = LOCAL_TIME( 10, 36, 8.00000000000000, #49 );
#32 = PERSON_AND_ORGANIZATION( #50, #51 );
#33 = APPROVAL( #52, 'SOLID MODEL' );
#34 = APPROVAL_ROLE( 'APPROVED' );
#35 = SECURITY_CLASSIFICATION( '', '', #53 );
#36 = PRODUCT_DEFINITION_FORMATION_WITH_SPECIFIED_SOURCE( ' ', 'NONE', #38, .NOT_KNOWN. );
#37 = PRODUCT_DEFINITION( 'NONE', 'NONE', #36, #1 );
#38 = PRODUCT( '1', '1', 'PART-1-DESC', ( #54 ) );
#39 = PRODUCT_DEFINITION_SHAPE( 'NONE', 'NONE', #37 );
#40 = ADVANCED_BREP_SHAPE_REPRESENTATION( '1', ( #55, #56 ), #23 );
#43 = UNCERTAINTY_MEASURE_WITH_UNIT( LENGTH_MEASURE( 0.00100000000000000 ), #45, '', '' );
#45 =  ( CONVERSION_BASED_UNIT( 'MILLIMETRE', #59 )LENGTH_UNIT(  )NAMED_UNIT( #62 ) );
#46 =  ( NAMED_UNIT( #64 )PLANE_ANGLE_UNIT(  )SI_UNIT( $, .RADIAN. ) );
#47 =  ( NAMED_UNIT( #64 )SOLID_ANGLE_UNIT(  )SI_UNIT( $, .STERADIAN. ) );
#49 = COORDINATED_UNIVERSAL_TIME_OFFSET( 8, 0, .AHEAD. );
#50 = PERSON( '', 'UNSPECIFIED', $, $, $, $ );
#51 = ORGANIZATION( 'UNSPECIFIED', 'UNSPECIFIED', 'UNSPECIFIED' );
#52 = APPROVAL_STATUS( 'approved' );
#53 = SECURITY_CLASSIFICATION_LEVEL( 'unclassified' );
#54 = MECHANICAL_CONTEXT( '', #27, 'mechanical' );
#55 = MANIFOLD_SOLID_BREP( '1', #70 );
#56 = AXIS2_PLACEMENT_3D( '', #71, #72, #73 );
#59 = LENGTH_MEASURE_WITH_UNIT( LENGTH_MEASURE( 1.00000000000000 ), #74 );
#62 = DIMENSIONAL_EXPONENTS( 1.00000000000000, 0.000000000000000, 0.000000000000000, 0.000000000000000, 0.000000000000000, 0.000000000000000, 0.000000000000000 );
#64 = DIMENSIONAL_EXPONENTS( 0.000000000000000, 0.000000000000000, 0.000000000000000, 0.000000000000000, 0.000000000000000, 0.000000000000000, 0.000000000000000 );
#70 = CLOSED_SHELL( '', ( #75, #76, #77, #78, #79, #80, #81, #82, #83, #84 ) );
#71 = CARTESIAN_POINT( '', ( 0.000000000000000, 0.000000000000000, 0.000000000000000 ) );
#72 = DIRECTION( '', ( 0.000000000000000, 0.000000000000000, 1.00000000000000 ) );
#73 = DIRECTION( '', ( 1.00000000000000, 0.000000000000000, 0.000000000000000 ) );
#74 =  ( NAMED_UNIT( #62 )LENGTH_UNIT(  )SI_UNIT( .MILLI., .METRE. ) );
#75 = ADVANCED_FACE( '', ( #86 ), #87, .T. );
#76 = ADVANCED_FACE( '', ( #88, #89 ), #90, .F. );
#77 = ADVANCED_FACE( '', ( #91, #92 ), #93, .F. );
#78 = ADVANCED_FACE( '', ( #94 ), #95, .T. );
#79 = ADVANCED_FACE( '', ( #96 ), #97, .T. );
#80 = ADVANCED_FACE( '', ( #98 ), #99, .T. );
#81 = ADVANCED_FACE( '', ( #100 ), #101, .T. );
#82 = ADVANCED_FACE( '', ( #102 ), #103, .T. );
#83 = ADVANCED_FACE( '', ( #104 ), #105, .T. );
#84 = ADVANCED_FACE( '', ( #106, #107 ), #108, .F. );
#86 = FACE_OUTER_BOUND( '', #109, .T. );
#87 = CYLINDRICAL_SURFACE( '', #110, 11.0000000000000 );
#88 = FACE_OUTER_BOUND( '', #111, .T. );
#89 = FACE_BOUND( '', #112, .T. );
#90 = CONICAL_SURFACE( '', #113, 5.10000000000000, 1.02974425867665 );
#91 = FACE_OUTER_BOUND( '', #114, .T. );
#92 = FACE_OUTER_BOUND( '', #115, .T. );
#93 = CYLINDRICAL_SURFACE( '', #116, 5.10000000000000 );
#94 = FACE_OUTER_BOUND( '', #117, .T. );
#95 = PLANE( '', #118 );
#96 = FACE_OUTER_BOUND( '', #119, .T. );
#97 = CYLINDRICAL_SURFACE( '', #120, 11.0000000000000 );
#98 = FACE_OUTER_BOUND( '', #121, .T. );
#99 = PLANE( '', #122 );
#100 = FACE_OUTER_BOUND( '', #123, .T. );
#101 = CONICAL_SURFACE( '', #124, 10.0000000000000, 0.785398163397448 );
#102 = FACE_OUTER_BOUND( '', #125, .T. );
#103 = PLANE( '', #126 );
#104 = FACE_OUTER_BOUND( '', #127, .T. );
#105 = CONICAL_SURFACE( '', #128, 10.0000000000000, 0.785398163397448 );
#106 = FACE_BOUND( '', #129, .T. );
#107 = FACE_OUTER_BOUND( '', #130, .T. );
#108 = PLANE( '', #131 );
#109 = EDGE_LOOP( '', ( #132, #133, #134, #135 ) );
#110 = AXIS2_PLACEMENT_3D( '', #136, #137, #138 );
#111 = EDGE_LOOP( '', ( #139 ) );
#112 = VERTEX_LOOP( '', #140 );
#113 = AXIS2_PLACEMENT_3D( '', #141, #142, #143 );
#114 = EDGE_LOOP( '', ( #144 ) );
#115 = EDGE_LOOP( '', ( #145 ) );
#116 = AXIS2_PLACEMENT_3D( '', #146, #147, #148 );
#117 = EDGE_LOOP( '', ( #149, #150, #151, #152, #153, #154 ) );
#118 = AXIS2_PLACEMENT_3D( '', #155, #156, #157 );
#119 = EDGE_LOOP( '', ( #158, #159, #160, #161 ) );
#120 = AXIS2_PLACEMENT_3D( '', #162, #163, #164 );
#121 = EDGE_LOOP( '', ( #165, #166, #167, #168 ) );
#122 = AXIS2_PLACEMENT_3D( '', #169, #170, #171 );
#123 = EDGE_LOOP( '', ( #172, #173, #174, #175 ) );
#124 = AXIS2_PLACEMENT_3D( '', #176, #177, #178 );
#125 = EDGE_LOOP( '', ( #179, #180, #181, #182, #183, #184 ) );
#126 = AXIS2_PLACEMENT_3D( '', #185, #186, #187 );
#127 = EDGE_LOOP( '', ( #188, #189, #190, #191 ) );
#128 = AXIS2_PLACEMENT_3D( '', #192, #193, #194 );
#129 = EDGE_LOOP( '', ( #195 ) );
#130 = EDGE_LOOP( '', ( #196, #197, #198, #199 ) );
#131 = AXIS2_PLACEMENT_3D( '', #200, #201, #202 );
#132 = ORIENTED_EDGE( '', *, *, #203, .F. );
#133 = ORIENTED_EDGE( '', *, *, #204, .T. );
#134 = ORIENTED_EDGE( '', *, *, #205, .F. );
#135 = ORIENTED_EDGE( '', *, *, #206, .T. );
#136 = CARTESIAN_POINT( '', ( 0.000000000000000, 0.000000000000000, 20.0000000000000 ) );
#137 = DIRECTION( '', ( -0.000000000000000, -0.000000000000000, 1.00000000000000 ) );
#138 = DIRECTION( '', ( -1.00000000000000, 0.000000000000000, 0.000000000000000 ) );
#139 = ORIENTED_EDGE( '', *, *, #207, .F. );
#140 = VERTEX_POINT( '', #208 );
#141 = CARTESIAN_POINT( '', ( -2.38524477946811E-015, 0.000000000000000, 14.0000000000000 ) );
#142 = DIRECTION( '', ( 0.000000000000000, -0.000000000000000, -1.00000000000000 ) );
#143 = DIRECTION( '', ( 0.000000000000000, -1.00000000000000, 0.000000000000000 ) );
#144 = ORIENTED_EDGE( '', *, *, #207, .T. );
#145 = ORIENTED_EDGE( '', *, *, #209, .F. );
#146 = CARTESIAN_POINT( '', ( -2.38524477946811E-015, 0.000000000000000, 0.000000000000000 ) );
#147 = DIRECTION( '', ( -0.000000000000000, 0.000000000000000, -1.00000000000000 ) );
#148 = DIRECTION( '', ( 0.000000000000000, 1.00000000000000, 0.000000000000000 ) );
#149 = ORIENTED_EDGE( '', *, *, #203, .T. );
#150 = ORIENTED_EDGE( '', *, *, #210, .F. );
#151 = ORIENTED_EDGE( '', *, *, #211, .T. );
#152 = ORIENTED_EDGE( '', *, *, #212, .F. );
#153 = ORIENTED_EDGE( '', *, *, #213, .T. );
#154 = ORIENTED_EDGE( '', *, *, #214, .F. );
#155 = CARTESIAN_POINT( '', ( -9.50000000000000, -15.0000000000000, 0.000000000000000 ) );
#156 = DIRECTION( '', ( -1.00000000000000, 0.000000000000000, 0.000000000000000 ) );
#157 = DIRECTION( '', ( 0.000000000000000, 0.000000000000000, 1.00000000000000 ) );
#158 = ORIENTED_EDGE( '', *, *, #211, .F. );
#159 = ORIENTED_EDGE( '', *, *, #215, .T. );
#160 = ORIENTED_EDGE( '', *, *, #216, .F. );
#161 = ORIENTED_EDGE( '', *, *, #217, .T. );
#162 = CARTESIAN_POINT( '', ( 0.000000000000000, 0.000000000000000, 20.0000000000000 ) );
#163 = DIRECTION( '', ( -0.000000000000000, -0.000000000000000, 1.00000000000000 ) );
#164 = DIRECTION( '', ( -1.00000000000000, 0.000000000000000, 0.000000000000000 ) );
#165 = ORIENTED_EDGE( '', *, *, #218, .T. );
#166 = ORIENTED_EDGE( '', *, *, #213, .F. );
#167 = ORIENTED_EDGE( '', *, *, #219, .T. );
#168 = ORIENTED_EDGE( '', *, *, #220, .T. );
#169 = CARTESIAN_POINT( '', ( 0.000000000000000, 0.000000000000000, 20.0000000000000 ) );
#170 = DIRECTION( '', ( 0.000000000000000, 0.000000000000000, 1.00000000000000 ) );
#171 = DIRECTION( '', ( 1.00000000000000, 0.000000000000000, 0.000000000000000 ) );
#172 = ORIENTED_EDGE( '', *, *, #204, .F. );
#173 = ORIENTED_EDGE( '', *, *, #214, .T. );
#174 = ORIENTED_EDGE( '', *, *, #218, .F. );
#175 = ORIENTED_EDGE( '', *, *, #221, .T. );
#176 = CARTESIAN_POINT( '', ( 0.000000000000000, 0.000000000000000, 20.0000000000000 ) );
#177 = DIRECTION( '', ( -0.000000000000000, 0.000000000000000, -1.00000000000000 ) );
#178 = DIRECTION( '', ( -1.00000000000000, 0.000000000000000, 0.000000000000000 ) );
#179 = ORIENTED_EDGE( '', *, *, #216, .T. );
#180 = ORIENTED_EDGE( '', *, *, #222, .T. );
#181 = ORIENTED_EDGE( '', *, *, #205, .T. );
#182 = ORIENTED_EDGE( '', *, *, #221, .F. );
#183 = ORIENTED_EDGE( '', *, *, #220, .F. );
#184 = ORIENTED_EDGE( '', *, *, #223, .F. );
#185 = CARTESIAN_POINT( '', ( 9.50000000000000, -15.0000000000000, 20.0000000000000 ) );
#186 = DIRECTION( '', ( 1.00000000000000, 0.000000000000000, 8.67361737988404E-017 ) );
#187 = DIRECTION( '', ( 8.67361737988404E-017, 0.000000000000000, -1.00000000000000 ) );
#188 = ORIENTED_EDGE( '', *, *, #219, .F. );
#189 = ORIENTED_EDGE( '', *, *, #212, .T. );
#190 = ORIENTED_EDGE( '', *, *, #217, .F. );
#191 = ORIENTED_EDGE( '', *, *, #223, .T. );
#192 = CARTESIAN_POINT( '', ( 0.000000000000000, 0.000000000000000, 20.0000000000000 ) );
#193 = DIRECTION( '', ( -0.000000000000000, 0.000000000000000, -1.00000000000000 ) );
#194 = DIRECTION( '', ( -1.00000000000000, 0.000000000000000, 0.000000000000000 ) );
#195 = ORIENTED_EDGE( '', *, *, #209, .T. );
#196 = ORIENTED_EDGE( '', *, *, #210, .T. );
#197 = ORIENTED_EDGE( '', *, *, #206, .F. );
#198 = ORIENTED_EDGE( '', *, *, #222, .F. );
#199 = ORIENTED_EDGE( '', *, *, #215, .F. );
#200 = CARTESIAN_POINT( '', ( 0.000000000000000, 0.000000000000000, 0.000000000000000 ) );
#201 = DIRECTION( '', ( 0.000000000000000, 0.000000000000000, 1.00000000000000 ) );
#202 = DIRECTION( '', ( 1.00000000000000, 0.000000000000000, 0.000000000000000 ) );
#203 = EDGE_CURVE( '', #224, #225, #226, .T. );
#204 = EDGE_CURVE( '', #224, #227, #228, .F. );
#205 = EDGE_CURVE( '', #229, #227, #230, .F. );
#206 = EDGE_CURVE( '', #229, #225, #231, .T. );
#207 = EDGE_CURVE( '', #232, #232, #233, .T. );
#208 = CARTESIAN_POINT( '', ( -2.38524477946811E-015, 0.000000000000000, 17.0643891570406 ) );
#209 = EDGE_CURVE( '', #234, #234, #235, .T. );
#210 = EDGE_CURVE( '', #236, #225, #237, .T. );
#211 = EDGE_CURVE( '', #236, #238, #239, .F. );
#212 = EDGE_CURVE( '', #240, #238, #241, .F. );
#213 = EDGE_CURVE( '', #240, #242, #243, .T. );
#214 = EDGE_CURVE( '', #224, #242, #244, .F. );
#215 = EDGE_CURVE( '', #236, #245, #246, .T. );
#216 = EDGE_CURVE( '', #247, #245, #248, .T. );
#217 = EDGE_CURVE( '', #247, #238, #249, .F. );
#218 = EDGE_CURVE( '', #250, #242, #251, .T. );
#219 = EDGE_CURVE( '', #240, #252, #253, .T. );
#220 = EDGE_CURVE( '', #252, #250, #254, .T. );
#221 = EDGE_CURVE( '', #250, #227, #255, .T. );
#222 = EDGE_CURVE( '', #245, #229, #256, .T. );
#223 = EDGE_CURVE( '', #247, #252, #257, .T. );
#224 = VERTEX_POINT( '', #258 );
#225 = VERTEX_POINT( '', #259 );
#226 = LINE( '', #260, #261 );
#227 = VERTEX_POINT( '', #262 );
#228 = CIRCLE( '', #263, 11.0000000000000 );
#229 = VERTEX_POINT( '', #264 );
#230 = LINE( '', #265, #266 );
#231 = CIRCLE( '', #267, 11.0000000000000 );
#232 = VERTEX_POINT( '', #268 );
#233 = CIRCLE( '', #269, 5.10000000000000 );
#234 = VERTEX_POINT( '', #270 );
#235 = CIRCLE( '', #271, 5.10000000000000 );
#236 = VERTEX_POINT( '', #272 );
#237 = LINE( '', #273, #274 );
#238 = VERTEX_POINT( '', #275 );
#239 = LINE( '', #276, #277 );
#240 = VERTEX_POINT( '', #278 );
#241 = B_SPLINE_CURVE_WITH_KNOTS( '', 3, ( #279, #280, #281, #282 ), .UNSPECIFIED., .F., .F., ( 4, 4 ), ( 0.0161111119374069, 0.0187292720857241 ), .UNSPECIFIED. );
#242 = VERTEX_POINT( '', #283 );
#243 = LINE( '', #284, #285 );
#244 = B_SPLINE_CURVE_WITH_KNOTS( '', 3, ( #286, #287, #288, #289, #290, #291 ), .UNSPECIFIED., .F., .F., ( 4, 2, 4 ), ( 0.0250452503621921, 0.0263501725940185, 0.0276550948258448 ), .UNSPECIFIED. );
#245 = VERTEX_POINT( '', #292 );
#246 = CIRCLE( '', #293, 11.0000000000000 );
#247 = VERTEX_POINT( '', #294 );
#248 = LINE( '', #295, #296 );
#249 = CIRCLE( '', #297, 11.0000000000000 );
#250 = VERTEX_POINT( '', #298 );
#251 = CIRCLE( '', #299, 10.0000000000000 );
#252 = VERTEX_POINT( '', #300 );
#253 = CIRCLE( '', #301, 10.0000000000000 );
#254 = LINE( '', #302, #303 );
#255 = B_SPLINE_CURVE_WITH_KNOTS( '', 3, ( #304, #305, #306, #307, #308, #309 ), .UNSPECIFIED., .F., .F., ( 4, 2, 4 ), ( 0.0250452503621921, 0.0263501725940185, 0.0276550948258448 ), .UNSPECIFIED. );
#256 = LINE( '', #310, #311 );
#257 = B_SPLINE_CURVE_WITH_KNOTS( '', 3, ( #312, #313, #314, #315 ), .UNSPECIFIED., .F., .F., ( 4, 4 ), ( 0.0161111119374070, 0.0187292720857242 ), .UNSPECIFIED. );
#258 = CARTESIAN_POINT( '', ( -9.50000000000000, 5.54526825320472, 19.0000000000000 ) );
#259 = CARTESIAN_POINT( '', ( -9.50000000000000, 5.54526825320472, 0.000000000000000 ) );
#260 = CARTESIAN_POINT( '', ( -9.50000000000000, 5.54526825320472, 20.0000000000000 ) );
#261 = VECTOR( '', #316, 1000.00000000000 );
#262 = CARTESIAN_POINT( '', ( 9.50000000000000, 5.54526825320471, 19.0000000000000 ) );
#263 = AXIS2_PLACEMENT_3D( '', #317, #318, #319 );
#264 = CARTESIAN_POINT( '', ( 9.50000000000000, 5.54526825320471, 0.000000000000000 ) );
#265 = CARTESIAN_POINT( '', ( 9.50000000000000, 5.54526825320471, 20.0000000000000 ) );
#266 = VECTOR( '', #320, 1000.00000000000 );
#267 = AXIS2_PLACEMENT_3D( '', #321, #322, #323 );
#268 = CARTESIAN_POINT( '', ( -2.38524477946811E-015, -5.10000000000000, 14.0000000000000 ) );
#269 = AXIS2_PLACEMENT_3D( '', #324, #325, #326 );
#270 = CARTESIAN_POINT( '', ( -2.38524477946811E-015, 5.10000000000000, 0.000000000000000 ) );
#271 = AXIS2_PLACEMENT_3D( '', #327, #328, #329 );
#272 = CARTESIAN_POINT( '', ( -9.50000000000000, -5.54526825320472, 0.000000000000000 ) );
#273 = CARTESIAN_POINT( '', ( -9.50000000000000, -15.0000000000000, 0.000000000000000 ) );
#274 = VECTOR( '', #330, 1000.00000000000 );
#275 = CARTESIAN_POINT( '', ( -9.50000000000000, -5.54526825320472, 19.0000000000000 ) );
#276 = CARTESIAN_POINT( '', ( -9.50000000000000, -5.54526825320472, 20.0000000000000 ) );
#277 = VECTOR( '', #331, 1000.00000000000 );
#278 = CARTESIAN_POINT( '', ( -9.50000000000000, -3.12249899919922, 20.0000000000000 ) );
#279 = CARTESIAN_POINT( '', ( -9.50000000000000, -5.54526825320472, 19.0000000000000 ) );
#280 = CARTESIAN_POINT( '', ( -9.50000000000000, -4.76517185767961, 19.3932585251404 ) );
#281 = CARTESIAN_POINT( '', ( -9.50000000000000, -3.96266002075093, 19.7376598051039 ) );
#282 = CARTESIAN_POINT( '', ( -9.50000000000000, -3.12249899919923, 20.0000000000000 ) );
#283 = CARTESIAN_POINT( '', ( -9.50000000000000, 3.12249899919922, 20.0000000000000 ) );
#284 = CARTESIAN_POINT( '', ( -9.50000000000000, -15.0000000000000, 20.0000000000000 ) );
#285 = VECTOR( '', #332, 1000.00000000000 );
#286 = CARTESIAN_POINT( '', ( -9.50000000000000, 3.12249899919921, 20.0000000000000 ) );
#287 = CARTESIAN_POINT( '', ( -9.50000000000000, 3.53973635712071, 19.8697176767462 ) );
#288 = CARTESIAN_POINT( '', ( -9.50000000000000, 3.95369410529005, 19.7166842411818 ) );
#289 = CARTESIAN_POINT( '', ( -9.50000000000000, 4.76251745220727, 19.3794322938963 ) );
#290 = CARTESIAN_POINT( '', ( -9.50000000000000, 5.15746611216567, 19.1954969910208 ) );
#291 = CARTESIAN_POINT( '', ( -9.50000000000000, 5.54526825320473, 19.0000000000000 ) );
#292 = CARTESIAN_POINT( '', ( 9.50000000000000, -5.54526825320471, 0.000000000000000 ) );
#293 = AXIS2_PLACEMENT_3D( '', #333, #334, #335 );
#294 = CARTESIAN_POINT( '', ( 9.50000000000000, -5.54526825320471, 19.0000000000000 ) );
#295 = CARTESIAN_POINT( '', ( 9.50000000000000, -5.54526825320471, 20.0000000000000 ) );
#296 = VECTOR( '', #336, 1000.00000000000 );
#297 = AXIS2_PLACEMENT_3D( '', #337, #338, #339 );
#298 = CARTESIAN_POINT( '', ( 9.50000000000000, 3.12249899919919, 20.0000000000000 ) );
#299 = AXIS2_PLACEMENT_3D( '', #340, #341, #342 );
#300 = CARTESIAN_POINT( '', ( 9.50000000000000, -3.12249899919919, 20.0000000000000 ) );
#301 = AXIS2_PLACEMENT_3D( '', #343, #344, #345 );
#302 = CARTESIAN_POINT( '', ( 9.50000000000000, -15.0000000000000, 20.0000000000000 ) );
#303 = VECTOR( '', #346, 1000.00000000000 );
#304 = CARTESIAN_POINT( '', ( 9.50000000000000, 3.12249899919920, 20.0000000000000 ) );
#305 = CARTESIAN_POINT( '', ( 9.50000000000000, 3.53973635712070, 19.8697176767462 ) );
#306 = CARTESIAN_POINT( '', ( 9.50000000000000, 3.95369410529004, 19.7166842411818 ) );
#307 = CARTESIAN_POINT( '', ( 9.50000000000000, 4.76251745220726, 19.3794322938963 ) );
#308 = CARTESIAN_POINT( '', ( 9.50000000000000, 5.15746611216566, 19.1954969910208 ) );
#309 = CARTESIAN_POINT( '', ( 9.50000000000000, 5.54526825320472, 19.0000000000000 ) );
#310 = CARTESIAN_POINT( '', ( 9.50000000000000, -15.0000000000000, 0.000000000000000 ) );
#311 = VECTOR( '', #347, 1000.00000000000 );
#312 = CARTESIAN_POINT( '', ( 9.50000000000000, -5.54526825320471, 19.0000000000000 ) );
#313 = CARTESIAN_POINT( '', ( 9.50000000000000, -4.76517185767960, 19.3932585251404 ) );
#314 = CARTESIAN_POINT( '', ( 9.50000000000000, -3.96266002075091, 19.7376598051039 ) );
#315 = CARTESIAN_POINT( '', ( 9.50000000000000, -3.12249899919921, 20.0000000000000 ) );
#316 = DIRECTION( '', ( 0.000000000000000, 0.000000000000000, -1.00000000000000 ) );
#317 = CARTESIAN_POINT( '', ( 0.000000000000000, 0.000000000000000, 19.0000000000000 ) );
#318 = DIRECTION( '', ( 0.000000000000000, 0.000000000000000, 1.00000000000000 ) );
#319 = DIRECTION( '', ( 1.00000000000000, 0.000000000000000, 0.000000000000000 ) );
#320 = DIRECTION( '', ( 0.000000000000000, 0.000000000000000, -1.00000000000000 ) );
#321 = CARTESIAN_POINT( '', ( 0.000000000000000, 0.000000000000000, 0.000000000000000 ) );
#322 = DIRECTION( '', ( 0.000000000000000, 0.000000000000000, 1.00000000000000 ) );
#323 = DIRECTION( '', ( 1.00000000000000, 0.000000000000000, 0.000000000000000 ) );
#324 = CARTESIAN_POINT( '', ( -2.38524477946811E-015, 0.000000000000000, 14.0000000000000 ) );
#325 = DIRECTION( '', ( 0.000000000000000, 0.000000000000000, 1.00000000000000 ) );
#326 = DIRECTION( '', ( 0.000000000000000, -1.00000000000000, 0.000000000000000 ) );
#327 = CARTESIAN_POINT( '', ( -2.38524477946811E-015, 0.000000000000000, 0.000000000000000 ) );
#328 = DIRECTION( '', ( 0.000000000000000, -0.000000000000000, 1.00000000000000 ) );
#329 = DIRECTION( '', ( 0.000000000000000, 1.00000000000000, 0.000000000000000 ) );
#330 = DIRECTION( '', ( 0.000000000000000, 1.00000000000000, 0.000000000000000 ) );
#331 = DIRECTION( '', ( 0.000000000000000, 0.000000000000000, -1.00000000000000 ) );
#332 = DIRECTION( '', ( 0.000000000000000, 1.00000000000000, 0.000000000000000 ) );
#333 = CARTESIAN_POINT( '', ( 0.000000000000000, 0.000000000000000, 0.000000000000000 ) );
#334 = DIRECTION( '', ( 0.000000000000000, 0.000000000000000, 1.00000000000000 ) );
#335 = DIRECTION( '', ( 1.00000000000000, 0.000000000000000, 0.000000000000000 ) );
#336 = DIRECTION( '', ( 0.000000000000000, 0.000000000000000, -1.00000000000000 ) );
#337 = CARTESIAN_POINT( '', ( 0.000000000000000, 0.000000000000000, 19.0000000000000 ) );
#338 = DIRECTION( '', ( 0.000000000000000, 0.000000000000000, 1.00000000000000 ) );
#339 = DIRECTION( '', ( 1.00000000000000, 0.000000000000000, 0.000000000000000 ) );
#340 = CARTESIAN_POINT( '', ( 0.000000000000000, 0.000000000000000, 20.0000000000000 ) );
#341 = DIRECTION( '', ( 0.000000000000000, 0.000000000000000, 1.00000000000000 ) );
#342 = DIRECTION( '', ( 1.00000000000000, 0.000000000000000, 0.000000000000000 ) );
#343 = CARTESIAN_POINT( '', ( 0.000000000000000, 0.000000000000000, 20.0000000000000 ) );
#344 = DIRECTION( '', ( 0.000000000000000, 0.000000000000000, 1.00000000000000 ) );
#345 = DIRECTION( '', ( 1.00000000000000, 0.000000000000000, 0.000000000000000 ) );
#346 = DIRECTION( '', ( 0.000000000000000, 1.00000000000000, 0.000000000000000 ) );
#347 = DIRECTION( '', ( 0.000000000000000, 1.00000000000000, 0.000000000000000 ) );
ENDSEC;
END-ISO-10303-21;
