ISO-10303-21;
HEADER;
FILE_DESCRIPTION( ( 'Unknown' ), '1' );
FILE_NAME( 'f:/¼È¦s/PT-3D/PT15-3D/PT15-1220.stp', 'Unknown', ( 'Unknown' ), ( 'Unknown' ), 'XStep 1.0', 'Unknown', '  ' );
FILE_SCHEMA( ( 'CONFIG_CONTROL_DESIGN' ) );
ENDSEC;
DATA;
#1 = DESIGN_CONTEXT( '', #27, 'design' );
#2 = APPLICATION_PROTOCOL_DEFINITION( 'INTERNATIONAL STANDARD', 'config_control_design', 1994, #27 );
#3 = PRODUCT_CATEGORY_RELATIONSHIP( 'NONE', 'NONE', #28, #29 );
#4 = DATE_AND_TIME( #30, #31 );
#5 = DATE_TIME_ROLE( 'creation_date' );
#6 = DATE_TIME_ROLE( 'classification_date' );
#7 = PERSON_AND_ORGANIZATION_ROLE( 'creator' );
#8 = PERSON_AND_ORGANIZATION_ROLE( 'design_supplier' );
#9 = PERSON_AND_ORGANIZATION_ROLE( 'classification_officer' );
#10 = PERSON_AND_ORGANIZATION_ROLE( 'design_owner' );
#11 = APPROVAL_PERSON_ORGANIZATION( #32, #33, #34 );
#12 = APPROVAL_DATE_TIME( #4, #33 );
#13 = CC_DESIGN_APPROVAL( #33, ( #35, #36, #37 ) );
#14 = CC_DESIGN_DATE_AND_TIME_ASSIGNMENT( #4, #5, ( #37 ) );
#15 = CC_DESIGN_DATE_AND_TIME_ASSIGNMENT( #4, #6, ( #35 ) );
#16 = CC_DESIGN_PERSON_AND_ORGANIZATION_ASSIGNMENT( #32, #10, ( #38 ) );
#17 = CC_DESIGN_PERSON_AND_ORGANIZATION_ASSIGNMENT( #32, #7, ( #37 ) );
#18 = CC_DESIGN_PERSON_AND_ORGANIZATION_ASSIGNMENT( #32, #7, ( #36 ) );
#19 = CC_DESIGN_PERSON_AND_ORGANIZATION_ASSIGNMENT( #32, #8, ( #36 ) );
#20 = CC_DESIGN_SECURITY_CLASSIFICATION( #35, ( #36 ) );
#21 = CC_DESIGN_PERSON_AND_ORGANIZATION_ASSIGNMENT( #32, #9, ( #35 ) );
#22 = SHAPE_DEFINITION_REPRESENTATION( #39, #40 );
#23 =  ( GEOMETRIC_REPRESENTATION_CONTEXT( 3 )GLOBAL_UNCERTAINTY_ASSIGNED_CONTEXT( ( #43 ) )GLOBAL_UNIT_ASSIGNED_CONTEXT( ( #45, #46, #47 ) )REPRESENTATION_CONTEXT( 'NONE', 'WORKSPACE' ) );
#27 = APPLICATION_CONTEXT( 'CONFIGURATION CONTROLLED 3D DESIGNS OF MECHANICAL PARTS AND ASSEMBLIES' );
#28 = PRODUCT_CATEGORY( 'part', 'NONE' );
#29 = PRODUCT_RELATED_PRODUCT_CATEGORY( 'detail', ' ', ( #38 ) );
#30 = CALENDAR_DATE( 2009, 9, 10 );
#31 = LOCAL_TIME( 10, 36, 16.0000000000000, #49 );
#32 = PERSON_AND_ORGANIZATION( #50, #51 );
#33 = APPROVAL( #52, 'SOLID MODEL' );
#34 = APPROVAL_ROLE( 'APPROVED' );
#35 = SECURITY_CLASSIFICATION( '', '', #53 );
#36 = PRODUCT_DEFINITION_FORMATION_WITH_SPECIFIED_SOURCE( ' ', 'NONE', #38, .NOT_KNOWN. );
#37 = PRODUCT_DEFINITION( 'NONE', 'NONE', #36, #1 );
#38 = PRODUCT( '1', '1', 'PART-1-DESC', ( #54 ) );
#39 = PRODUCT_DEFINITION_SHAPE( 'NONE', 'NONE', #37 );
#40 = ADVANCED_BREP_SHAPE_REPRESENTATION( '1', ( #55, #56 ), #23 );
#43 = UNCERTAINTY_MEASURE_WITH_UNIT( LENGTH_MEASURE( 0.00100000000000000 ), #45, '', '' );
#45 =  ( CONVERSION_BASED_UNIT( 'MILLIMETRE', #59 )LENGTH_UNIT(  )NAMED_UNIT( #62 ) );
#46 =  ( NAMED_UNIT( #64 )PLANE_ANGLE_UNIT(  )SI_UNIT( $, .RADIAN. ) );
#47 =  ( NAMED_UNIT( #64 )SOLID_ANGLE_UNIT(  )SI_UNIT( $, .STERADIAN. ) );
#49 = COORDINATED_UNIVERSAL_TIME_OFFSET( 8, 0, .AHEAD. );
#50 = PERSON( '', 'UNSPECIFIED', $, $, $, $ );
#51 = ORGANIZATION( 'UNSPECIFIED', 'UNSPECIFIED', 'UNSPECIFIED' );
#52 = APPROVAL_STATUS( 'approved' );
#53 = SECURITY_CLASSIFICATION_LEVEL( 'unclassified' );
#54 = MECHANICAL_CONTEXT( '', #27, 'mechanical' );
#55 = MANIFOLD_SOLID_BREP( '1', #70 );
#56 = AXIS2_PLACEMENT_3D( '', #71, #72, #73 );
#59 = LENGTH_MEASURE_WITH_UNIT( LENGTH_MEASURE( 1.00000000000000 ), #74 );
#62 = DIMENSIONAL_EXPONENTS( 1.00000000000000, 0.000000000000000, 0.000000000000000, 0.000000000000000, 0.000000000000000, 0.000000000000000, 0.000000000000000 );
#64 = DIMENSIONAL_EXPONENTS( 0.000000000000000, 0.000000000000000, 0.000000000000000, 0.000000000000000, 0.000000000000000, 0.000000000000000, 0.000000000000000 );
#70 = CLOSED_SHELL( '', ( #75, #76, #77, #78, #79, #80, #81, #82, #83 ) );
#71 = CARTESIAN_POINT( '', ( 0.000000000000000, 0.000000000000000, 0.000000000000000 ) );
#72 = DIRECTION( '', ( 0.000000000000000, 0.000000000000000, 1.00000000000000 ) );
#73 = DIRECTION( '', ( 1.00000000000000, 0.000000000000000, 0.000000000000000 ) );
#74 =  ( NAMED_UNIT( #62 )LENGTH_UNIT(  )SI_UNIT( .MILLI., .METRE. ) );
#75 = ADVANCED_FACE( '', ( #85, #86 ), #87, .F. );
#76 = ADVANCED_FACE( '', ( #88, #89 ), #90, .F. );
#77 = ADVANCED_FACE( '', ( #91, #92 ), #93, .F. );
#78 = ADVANCED_FACE( '', ( #94, #95 ), #96, .F. );
#79 = ADVANCED_FACE( '', ( #97 ), #98, .T. );
#80 = ADVANCED_FACE( '', ( #99 ), #100, .T. );
#81 = ADVANCED_FACE( '', ( #101 ), #102, .T. );
#82 = ADVANCED_FACE( '', ( #103 ), #104, .T. );
#83 = ADVANCED_FACE( '', ( #105 ), #106, .T. );
#85 = FACE_BOUND( '', #107, .T. );
#86 = FACE_OUTER_BOUND( '', #108, .T. );
#87 = PLANE( '', #109 );
#88 = FACE_OUTER_BOUND( '', #110, .T. );
#89 = FACE_BOUND( '', #111, .T. );
#90 = CONICAL_SURFACE( '', #112, 5.10000000000000, 1.02974425867665 );
#91 = FACE_BOUND( '', #113, .T. );
#92 = FACE_OUTER_BOUND( '', #114, .T. );
#93 = CONICAL_SURFACE( '', #115, 6.10000000000000, 0.785398163397448 );
#94 = FACE_OUTER_BOUND( '', #116, .T. );
#95 = FACE_OUTER_BOUND( '', #117, .T. );
#96 = CYLINDRICAL_SURFACE( '', #118, 5.10000000000000 );
#97 = FACE_OUTER_BOUND( '', #119, .T. );
#98 = PLANE( '', #120 );
#99 = FACE_OUTER_BOUND( '', #121, .T. );
#100 = CYLINDRICAL_SURFACE( '', #122, 11.0000000000000 );
#101 = FACE_OUTER_BOUND( '', #123, .T. );
#102 = CYLINDRICAL_SURFACE( '', #124, 11.0000000000000 );
#103 = FACE_OUTER_BOUND( '', #125, .T. );
#104 = SPHERICAL_SURFACE( '', #126, 11.0000000000000 );
#105 = FACE_OUTER_BOUND( '', #127, .T. );
#106 = PLANE( '', #128 );
#107 = EDGE_LOOP( '', ( #129 ) );
#108 = EDGE_LOOP( '', ( #130, #131, #132, #133 ) );
#109 = AXIS2_PLACEMENT_3D( '', #134, #135, #136 );
#110 = EDGE_LOOP( '', ( #137 ) );
#111 = VERTEX_LOOP( '', #138 );
#112 = AXIS2_PLACEMENT_3D( '', #139, #140, #141 );
#113 = EDGE_LOOP( '', ( #142 ) );
#114 = EDGE_LOOP( '', ( #143 ) );
#115 = AXIS2_PLACEMENT_3D( '', #144, #145, #146 );
#116 = EDGE_LOOP( '', ( #147 ) );
#117 = EDGE_LOOP( '', ( #148 ) );
#118 = AXIS2_PLACEMENT_3D( '', #149, #150, #151 );
#119 = EDGE_LOOP( '', ( #152, #153, #154, #155 ) );
#120 = AXIS2_PLACEMENT_3D( '', #156, #157, #158 );
#121 = EDGE_LOOP( '', ( #159, #160, #161, #162 ) );
#122 = AXIS2_PLACEMENT_3D( '', #163, #164, #165 );
#123 = EDGE_LOOP( '', ( #166, #167, #168, #169 ) );
#124 = AXIS2_PLACEMENT_3D( '', #170, #171, #172 );
#125 = EDGE_LOOP( '', ( #173, #174, #175, #176 ) );
#126 = AXIS2_PLACEMENT_3D( '', #177, #178, #179 );
#127 = EDGE_LOOP( '', ( #180, #181, #182, #183 ) );
#128 = AXIS2_PLACEMENT_3D( '', #184, #185, #186 );
#129 = ORIENTED_EDGE( '', *, *, #187, .T. );
#130 = ORIENTED_EDGE( '', *, *, #188, .F. );
#131 = ORIENTED_EDGE( '', *, *, #189, .F. );
#132 = ORIENTED_EDGE( '', *, *, #190, .T. );
#133 = ORIENTED_EDGE( '', *, *, #191, .F. );
#134 = CARTESIAN_POINT( '', ( 11.0000000000000, 0.000000000000000, 7.34763812293426E-015 ) );
#135 = DIRECTION( '', ( 0.000000000000000, 0.000000000000000, 1.00000000000000 ) );
#136 = DIRECTION( '', ( 1.00000000000000, 0.000000000000000, 0.000000000000000 ) );
#137 = ORIENTED_EDGE( '', *, *, #192, .F. );
#138 = VERTEX_POINT( '', #193 );
#139 = CARTESIAN_POINT( '', ( -2.38524477946811E-015, 0.000000000000000, 13.0000000000000 ) );
#140 = DIRECTION( '', ( 0.000000000000000, -0.000000000000000, -1.00000000000000 ) );
#141 = DIRECTION( '', ( 0.000000000000000, -1.00000000000000, 0.000000000000000 ) );
#142 = ORIENTED_EDGE( '', *, *, #194, .F. );
#143 = ORIENTED_EDGE( '', *, *, #187, .F. );
#144 = CARTESIAN_POINT( '', ( -2.38524477946811E-015, 0.000000000000000, 7.34763812293426E-015 ) );
#145 = DIRECTION( '', ( -0.000000000000000, 0.000000000000000, -1.00000000000000 ) );
#146 = DIRECTION( '', ( -1.00000000000000, 0.000000000000000, 0.000000000000000 ) );
#147 = ORIENTED_EDGE( '', *, *, #194, .T. );
#148 = ORIENTED_EDGE( '', *, *, #192, .T. );
#149 = CARTESIAN_POINT( '', ( -2.38524477946811E-015, 0.000000000000000, 7.34763812293426E-015 ) );
#150 = DIRECTION( '', ( -0.000000000000000, 0.000000000000000, -1.00000000000000 ) );
#151 = DIRECTION( '', ( 0.000000000000000, 1.00000000000000, 0.000000000000000 ) );
#152 = ORIENTED_EDGE( '', *, *, #195, .T. );
#153 = ORIENTED_EDGE( '', *, *, #196, .T. );
#154 = ORIENTED_EDGE( '', *, *, #197, .T. );
#155 = ORIENTED_EDGE( '', *, *, #188, .T. );
#156 = CARTESIAN_POINT( '', ( 9.50000000000000, -14.0000000000000, 20.0000000000000 ) );
#157 = DIRECTION( '', ( 1.00000000000000, 0.000000000000000, 8.67361737988404E-017 ) );
#158 = DIRECTION( '', ( 8.67361737988404E-017, 0.000000000000000, -1.00000000000000 ) );
#159 = ORIENTED_EDGE( '', *, *, #195, .F. );
#160 = ORIENTED_EDGE( '', *, *, #191, .T. );
#161 = ORIENTED_EDGE( '', *, *, #198, .F. );
#162 = ORIENTED_EDGE( '', *, *, #199, .F. );
#163 = CARTESIAN_POINT( '', ( 0.000000000000000, 0.000000000000000, 54.0000000000000 ) );
#164 = DIRECTION( '', ( -0.000000000000000, -0.000000000000000, -1.00000000000000 ) );
#165 = DIRECTION( '', ( 1.00000000000000, 0.000000000000000, 0.000000000000000 ) );
#166 = ORIENTED_EDGE( '', *, *, #197, .F. );
#167 = ORIENTED_EDGE( '', *, *, #200, .F. );
#168 = ORIENTED_EDGE( '', *, *, #201, .F. );
#169 = ORIENTED_EDGE( '', *, *, #189, .T. );
#170 = CARTESIAN_POINT( '', ( 0.000000000000000, 0.000000000000000, 54.0000000000000 ) );
#171 = DIRECTION( '', ( -0.000000000000000, -0.000000000000000, -1.00000000000000 ) );
#172 = DIRECTION( '', ( 1.00000000000000, 0.000000000000000, 0.000000000000000 ) );
#173 = ORIENTED_EDGE( '', *, *, #196, .F. );
#174 = ORIENTED_EDGE( '', *, *, #199, .T. );
#175 = ORIENTED_EDGE( '', *, *, #202, .F. );
#176 = ORIENTED_EDGE( '', *, *, #200, .T. );
#177 = CARTESIAN_POINT( '', ( 0.000000000000000, 0.000000000000000, 9.00000000000000 ) );
#178 = DIRECTION( '', ( 0.000000000000000, 0.000000000000000, 1.00000000000000 ) );
#179 = DIRECTION( '', ( 1.00000000000000, 0.000000000000000, 0.000000000000000 ) );
#180 = ORIENTED_EDGE( '', *, *, #201, .T. );
#181 = ORIENTED_EDGE( '', *, *, #202, .T. );
#182 = ORIENTED_EDGE( '', *, *, #198, .T. );
#183 = ORIENTED_EDGE( '', *, *, #190, .F. );
#184 = CARTESIAN_POINT( '', ( -9.50000000000000, -14.0000000000000, 6.93889390390723E-015 ) );
#185 = DIRECTION( '', ( -1.00000000000000, 0.000000000000000, 0.000000000000000 ) );
#186 = DIRECTION( '', ( 0.000000000000000, 0.000000000000000, 1.00000000000000 ) );
#187 = EDGE_CURVE( '', #203, #203, #204, .T. );
#188 = EDGE_CURVE( '', #205, #206, #207, .T. );
#189 = EDGE_CURVE( '', #208, #205, #209, .T. );
#190 = EDGE_CURVE( '', #208, #210, #211, .T. );
#191 = EDGE_CURVE( '', #206, #210, #212, .T. );
#192 = EDGE_CURVE( '', #213, #213, #214, .T. );
#193 = CARTESIAN_POINT( '', ( -2.38524477946811E-015, 0.000000000000000, 16.0643891570405 ) );
#194 = EDGE_CURVE( '', #215, #215, #216, .F. );
#195 = EDGE_CURVE( '', #206, #217, #218, .T. );
#196 = EDGE_CURVE( '', #217, #219, #220, .T. );
#197 = EDGE_CURVE( '', #219, #205, #221, .F. );
#198 = EDGE_CURVE( '', #222, #210, #223, .F. );
#199 = EDGE_CURVE( '', #217, #222, #224, .T. );
#200 = EDGE_CURVE( '', #225, #219, #226, .T. );
#201 = EDGE_CURVE( '', #208, #225, #227, .T. );
#202 = EDGE_CURVE( '', #225, #222, #228, .T. );
#203 = VERTEX_POINT( '', #229 );
#204 = CIRCLE( '', #230, 6.10000000000000 );
#205 = VERTEX_POINT( '', #231 );
#206 = VERTEX_POINT( '', #232 );
#207 = LINE( '', #233, #234 );
#208 = VERTEX_POINT( '', #235 );
#209 = CIRCLE( '', #236, 11.0000000000000 );
#210 = VERTEX_POINT( '', #237 );
#211 = LINE( '', #238, #239 );
#212 = CIRCLE( '', #240, 11.0000000000000 );
#213 = VERTEX_POINT( '', #241 );
#214 = CIRCLE( '', #242, 5.10000000000000 );
#215 = VERTEX_POINT( '', #243 );
#216 = CIRCLE( '', #244, 5.10000000000000 );
#217 = VERTEX_POINT( '', #245 );
#218 = LINE( '', #246, #247 );
#219 = VERTEX_POINT( '', #248 );
#220 = CIRCLE( '', #249, 5.54526825320471 );
#221 = LINE( '', #250, #251 );
#222 = VERTEX_POINT( '', #252 );
#223 = LINE( '', #253, #254 );
#224 = CIRCLE( '', #255, 11.0000000000000 );
#225 = VERTEX_POINT( '', #256 );
#226 = CIRCLE( '', #257, 11.0000000000000 );
#227 = LINE( '', #258, #259 );
#228 = CIRCLE( '', #260, 5.54526825320472 );
#229 = CARTESIAN_POINT( '', ( 6.10000000000000, 0.000000000000000, 7.34763812293426E-015 ) );
#230 = AXIS2_PLACEMENT_3D( '', #261, #262, #263 );
#231 = CARTESIAN_POINT( '', ( 9.50000000000000, -5.54526825320470, 6.93889390390723E-015 ) );
#232 = CARTESIAN_POINT( '', ( 9.50000000000000, 5.54526825320470, 6.93889390390723E-015 ) );
#233 = CARTESIAN_POINT( '', ( 9.50000000000000, -14.0000000000000, 6.93889390390723E-015 ) );
#234 = VECTOR( '', #264, 1000.00000000000 );
#235 = CARTESIAN_POINT( '', ( -9.50000000000000, -5.54526825320471, 6.93889390390723E-015 ) );
#236 = AXIS2_PLACEMENT_3D( '', #265, #266, #267 );
#237 = CARTESIAN_POINT( '', ( -9.50000000000000, 5.54526825320471, 6.93889390390723E-015 ) );
#238 = CARTESIAN_POINT( '', ( -9.50000000000000, -14.0000000000000, 6.93889390390723E-015 ) );
#239 = VECTOR( '', #268, 1000.00000000000 );
#240 = AXIS2_PLACEMENT_3D( '', #269, #270, #271 );
#241 = CARTESIAN_POINT( '', ( -2.38524477946811E-015, -5.10000000000000, 13.0000000000000 ) );
#242 = AXIS2_PLACEMENT_3D( '', #272, #273, #274 );
#243 = CARTESIAN_POINT( '', ( 5.10000000000000, 0.000000000000000, 1.00000000000000 ) );
#244 = AXIS2_PLACEMENT_3D( '', #275, #276, #277 );
#245 = CARTESIAN_POINT( '', ( 9.50000000000000, 5.54526825320470, 9.00000000000000 ) );
#246 = CARTESIAN_POINT( '', ( 9.50000000000000, 5.54526825320471, 54.0000000000000 ) );
#247 = VECTOR( '', #278, 1000.00000000000 );
#248 = CARTESIAN_POINT( '', ( 9.50000000000000, -5.54526825320470, 9.00000000000000 ) );
#249 = AXIS2_PLACEMENT_3D( '', #279, #280, #281 );
#250 = CARTESIAN_POINT( '', ( 9.50000000000000, -5.54526825320471, 54.0000000000000 ) );
#251 = VECTOR( '', #282, 1000.00000000000 );
#252 = CARTESIAN_POINT( '', ( -9.50000000000000, 5.54526825320472, 9.00000000000000 ) );
#253 = CARTESIAN_POINT( '', ( -9.50000000000000, 5.54526825320471, 54.0000000000000 ) );
#254 = VECTOR( '', #283, 1000.00000000000 );
#255 = AXIS2_PLACEMENT_3D( '', #284, #285, #286 );
#256 = CARTESIAN_POINT( '', ( -9.50000000000000, -5.54526825320472, 9.00000000000000 ) );
#257 = AXIS2_PLACEMENT_3D( '', #287, #288, #289 );
#258 = CARTESIAN_POINT( '', ( -9.50000000000000, -5.54526825320471, 54.0000000000000 ) );
#259 = VECTOR( '', #290, 1000.00000000000 );
#260 = AXIS2_PLACEMENT_3D( '', #291, #292, #293 );
#261 = CARTESIAN_POINT( '', ( -2.38524477946811E-015, 0.000000000000000, 7.34763812293426E-015 ) );
#262 = DIRECTION( '', ( 0.000000000000000, 0.000000000000000, 1.00000000000000 ) );
#263 = DIRECTION( '', ( 1.00000000000000, 0.000000000000000, 0.000000000000000 ) );
#264 = DIRECTION( '', ( 0.000000000000000, 1.00000000000000, 0.000000000000000 ) );
#265 = CARTESIAN_POINT( '', ( 0.000000000000000, 0.000000000000000, 6.93889390390723E-015 ) );
#266 = DIRECTION( '', ( 0.000000000000000, 0.000000000000000, 1.00000000000000 ) );
#267 = DIRECTION( '', ( 1.00000000000000, 0.000000000000000, 0.000000000000000 ) );
#268 = DIRECTION( '', ( 0.000000000000000, 1.00000000000000, 0.000000000000000 ) );
#269 = CARTESIAN_POINT( '', ( 0.000000000000000, 0.000000000000000, 6.93889390390723E-015 ) );
#270 = DIRECTION( '', ( 0.000000000000000, 0.000000000000000, 1.00000000000000 ) );
#271 = DIRECTION( '', ( 1.00000000000000, 0.000000000000000, 0.000000000000000 ) );
#272 = CARTESIAN_POINT( '', ( -2.38524477946811E-015, 0.000000000000000, 13.0000000000000 ) );
#273 = DIRECTION( '', ( 0.000000000000000, 0.000000000000000, 1.00000000000000 ) );
#274 = DIRECTION( '', ( 0.000000000000000, -1.00000000000000, 0.000000000000000 ) );
#275 = CARTESIAN_POINT( '', ( -2.38524477946811E-015, 0.000000000000000, 1.00000000000000 ) );
#276 = DIRECTION( '', ( 0.000000000000000, 0.000000000000000, 1.00000000000000 ) );
#277 = DIRECTION( '', ( 1.00000000000000, 0.000000000000000, 0.000000000000000 ) );
#278 = DIRECTION( '', ( 0.000000000000000, 0.000000000000000, 1.00000000000000 ) );
#279 = CARTESIAN_POINT( '', ( 9.50000000000000, 0.000000000000000, 9.00000000000000 ) );
#280 = DIRECTION( '', ( 1.00000000000000, 0.000000000000000, 8.67361737988404E-017 ) );
#281 = DIRECTION( '', ( 8.67361737988404E-017, 0.000000000000000, -1.00000000000000 ) );
#282 = DIRECTION( '', ( 0.000000000000000, 0.000000000000000, 1.00000000000000 ) );
#283 = DIRECTION( '', ( 0.000000000000000, 0.000000000000000, 1.00000000000000 ) );
#284 = CARTESIAN_POINT( '', ( 0.000000000000000, 0.000000000000000, 9.00000000000000 ) );
#285 = DIRECTION( '', ( 0.000000000000000, 0.000000000000000, 1.00000000000000 ) );
#286 = DIRECTION( '', ( 1.00000000000000, 0.000000000000000, 0.000000000000000 ) );
#287 = CARTESIAN_POINT( '', ( 0.000000000000000, 0.000000000000000, 9.00000000000000 ) );
#288 = DIRECTION( '', ( 0.000000000000000, 0.000000000000000, 1.00000000000000 ) );
#289 = DIRECTION( '', ( 1.00000000000000, 0.000000000000000, 0.000000000000000 ) );
#290 = DIRECTION( '', ( 0.000000000000000, 0.000000000000000, 1.00000000000000 ) );
#291 = CARTESIAN_POINT( '', ( -9.50000000000000, 0.000000000000000, 9.00000000000000 ) );
#292 = DIRECTION( '', ( -1.00000000000000, 0.000000000000000, 0.000000000000000 ) );
#293 = DIRECTION( '', ( 0.000000000000000, 0.000000000000000, 1.00000000000000 ) );
ENDSEC;
END-ISO-10303-21;
