ISO-10303-21;
HEADER;
FILE_DESCRIPTION( ( 'Unknown' ), '1' );
FILE_NAME( 's:/LEAVE 2D&3D CAD/LEAVE 3D-PAR/Metric/PT/PT17-3D/PT17A-1245.stp', 'Unknown', ( 'Unknown' ), ( 'Unknown' ), 'XStep 1.0', 'Unknown', '  ' );
FILE_SCHEMA( ( 'CONFIG_CONTROL_DESIGN' ) );
ENDSEC;
DATA;
#1 = DESIGN_CONTEXT( '', #27, 'design' );
#2 = APPLICATION_PROTOCOL_DEFINITION( 'INTERNATIONAL STANDARD', 'config_control_design', 1994, #27 );
#3 = PRODUCT_CATEGORY_RELATIONSHIP( 'NONE', 'NONE', #28, #29 );
#4 = DATE_AND_TIME( #30, #31 );
#5 = DATE_TIME_ROLE( 'creation_date' );
#6 = DATE_TIME_ROLE( 'classification_date' );
#7 = PERSON_AND_ORGANIZATION_ROLE( 'creator' );
#8 = PERSON_AND_ORGANIZATION_ROLE( 'design_supplier' );
#9 = PERSON_AND_ORGANIZATION_ROLE( 'classification_officer' );
#10 = PERSON_AND_ORGANIZATION_ROLE( 'design_owner' );
#11 = APPROVAL_PERSON_ORGANIZATION( #32, #33, #34 );
#12 = APPROVAL_DATE_TIME( #4, #33 );
#13 = CC_DESIGN_APPROVAL( #33, ( #35, #36, #37 ) );
#14 = CC_DESIGN_DATE_AND_TIME_ASSIGNMENT( #4, #5, ( #37 ) );
#15 = CC_DESIGN_DATE_AND_TIME_ASSIGNMENT( #4, #6, ( #35 ) );
#16 = CC_DESIGN_PERSON_AND_ORGANIZATION_ASSIGNMENT( #32, #10, ( #38 ) );
#17 = CC_DESIGN_PERSON_AND_ORGANIZATION_ASSIGNMENT( #32, #7, ( #37 ) );
#18 = CC_DESIGN_PERSON_AND_ORGANIZATION_ASSIGNMENT( #32, #7, ( #36 ) );
#19 = CC_DESIGN_PERSON_AND_ORGANIZATION_ASSIGNMENT( #32, #8, ( #36 ) );
#20 = CC_DESIGN_SECURITY_CLASSIFICATION( #35, ( #36 ) );
#21 = CC_DESIGN_PERSON_AND_ORGANIZATION_ASSIGNMENT( #32, #9, ( #35 ) );
#22 = SHAPE_DEFINITION_REPRESENTATION( #39, #40 );
#23 =  ( GEOMETRIC_REPRESENTATION_CONTEXT( 3 )GLOBAL_UNCERTAINTY_ASSIGNED_CONTEXT( ( #43 ) )GLOBAL_UNIT_ASSIGNED_CONTEXT( ( #45, #46, #47 ) )REPRESENTATION_CONTEXT( 'NONE', 'WORKSPACE' ) );
#27 = APPLICATION_CONTEXT( 'CONFIGURATION CONTROLLED 3D DESIGNS OF MECHANICAL PARTS AND ASSEMBLIES' );
#28 = PRODUCT_CATEGORY( 'part', 'NONE' );
#29 = PRODUCT_RELATED_PRODUCT_CATEGORY( 'detail', ' ', ( #38 ) );
#30 = CALENDAR_DATE( 2010, 5, 0 );
#31 = LOCAL_TIME( 10, 18, 13.0000000000000, #49 );
#32 = PERSON_AND_ORGANIZATION( #50, #51 );
#33 = APPROVAL( #52, 'SOLID MODEL' );
#34 = APPROVAL_ROLE( 'APPROVED' );
#35 = SECURITY_CLASSIFICATION( '', '', #53 );
#36 = PRODUCT_DEFINITION_FORMATION_WITH_SPECIFIED_SOURCE( ' ', 'NONE', #38, .NOT_KNOWN. );
#37 = PRODUCT_DEFINITION( 'NONE', 'NONE', #36, #1 );
#38 = PRODUCT( '1', '1', 'PART-1-DESC', ( #54 ) );
#39 = PRODUCT_DEFINITION_SHAPE( 'NONE', 'NONE', #37 );
#40 = ADVANCED_BREP_SHAPE_REPRESENTATION( '1', ( #55, #56 ), #23 );
#43 = UNCERTAINTY_MEASURE_WITH_UNIT( LENGTH_MEASURE( 0.00100000000000000 ), #45, '', '' );
#45 =  ( CONVERSION_BASED_UNIT( 'MILLIMETRE', #59 )LENGTH_UNIT(  )NAMED_UNIT( #62 ) );
#46 =  ( NAMED_UNIT( #64 )PLANE_ANGLE_UNIT(  )SI_UNIT( $, .RADIAN. ) );
#47 =  ( NAMED_UNIT( #64 )SOLID_ANGLE_UNIT(  )SI_UNIT( $, .STERADIAN. ) );
#49 = COORDINATED_UNIVERSAL_TIME_OFFSET( 8, 0, .AHEAD. );
#50 = PERSON( '', 'UNSPECIFIED', $, $, $, $ );
#51 = ORGANIZATION( 'UNSPECIFIED', 'UNSPECIFIED', 'UNSPECIFIED' );
#52 = APPROVAL_STATUS( 'approved' );
#53 = SECURITY_CLASSIFICATION_LEVEL( 'unclassified' );
#54 = MECHANICAL_CONTEXT( '', #27, 'mechanical' );
#55 = MANIFOLD_SOLID_BREP( '1', #70 );
#56 = AXIS2_PLACEMENT_3D( '', #71, #72, #73 );
#59 = LENGTH_MEASURE_WITH_UNIT( LENGTH_MEASURE( 1.00000000000000 ), #74 );
#62 = DIMENSIONAL_EXPONENTS( 1.00000000000000, 0.000000000000000, 0.000000000000000, 0.000000000000000, 0.000000000000000, 0.000000000000000, 0.000000000000000 );
#64 = DIMENSIONAL_EXPONENTS( 0.000000000000000, 0.000000000000000, 0.000000000000000, 0.000000000000000, 0.000000000000000, 0.000000000000000, 0.000000000000000 );
#70 = CLOSED_SHELL( '', ( #75, #76, #77, #78, #79, #80, #81, #82, #83, #84, #85, #86, #87, #88, #89 ) );
#71 = CARTESIAN_POINT( '', ( 0.000000000000000, 0.000000000000000, 0.000000000000000 ) );
#72 = DIRECTION( '', ( 0.000000000000000, 0.000000000000000, 1.00000000000000 ) );
#73 = DIRECTION( '', ( 1.00000000000000, 0.000000000000000, 0.000000000000000 ) );
#74 =  ( NAMED_UNIT( #62 )LENGTH_UNIT(  )SI_UNIT( .MILLI., .METRE. ) );
#75 = ADVANCED_FACE( '', ( #91, #92 ), #93, .T. );
#76 = ADVANCED_FACE( '', ( #94, #95 ), #96, .T. );
#77 = ADVANCED_FACE( '', ( #97 ), #98, .T. );
#78 = ADVANCED_FACE( '', ( #99 ), #100, .T. );
#79 = ADVANCED_FACE( '', ( #101 ), #102, .F. );
#80 = ADVANCED_FACE( '', ( #103, #104 ), #105, .T. );
#81 = ADVANCED_FACE( '', ( #106 ), #107, .T. );
#82 = ADVANCED_FACE( '', ( #108, #109 ), #110, .T. );
#83 = ADVANCED_FACE( '', ( #111 ), #112, .T. );
#84 = ADVANCED_FACE( '', ( #113 ), #114, .T. );
#85 = ADVANCED_FACE( '', ( #115 ), #116, .T. );
#86 = ADVANCED_FACE( '', ( #117 ), #118, .T. );
#87 = ADVANCED_FACE( '', ( #119, #120 ), #121, .F. );
#88 = ADVANCED_FACE( '', ( #122, #123 ), #124, .T. );
#89 = ADVANCED_FACE( '', ( #125, #126 ), #127, .T. );
#91 = FACE_OUTER_BOUND( '', #128, .T. );
#92 = FACE_BOUND( '', #129, .T. );
#93 = PLANE( '', #130 );
#94 = FACE_OUTER_BOUND( '', #131, .T. );
#95 = FACE_BOUND( '', #132, .T. );
#96 = CONICAL_SURFACE( '', #133, 8.30000000000000, 0.785398163397448 );
#97 = FACE_OUTER_BOUND( '', #134, .T. );
#98 = PLANE( '', #135 );
#99 = FACE_OUTER_BOUND( '', #136, .T. );
#100 = PLANE( '', #137 );
#101 = FACE_OUTER_BOUND( '', #138, .T. );
#102 = PLANE( '', #139 );
#103 = FACE_OUTER_BOUND( '', #140, .T. );
#104 = FACE_OUTER_BOUND( '', #141, .T. );
#105 = CYLINDRICAL_SURFACE( '', #142, 9.00000000000000 );
#106 = FACE_OUTER_BOUND( '', #143, .T. );
#107 = SPHERICAL_SURFACE( '', #144, 4.36550000000000 );
#108 = FACE_OUTER_BOUND( '', #145, .T. );
#109 = FACE_OUTER_BOUND( '', #146, .T. );
#110 = CYLINDRICAL_SURFACE( '', #147, 6.00000000000000 );
#111 = FACE_OUTER_BOUND( '', #148, .T. );
#112 = PLANE( '', #149 );
#113 = FACE_OUTER_BOUND( '', #150, .T. );
#114 = PLANE( '', #151 );
#115 = FACE_OUTER_BOUND( '', #152, .T. );
#116 = PLANE( '', #153 );
#117 = FACE_OUTER_BOUND( '', #154, .T. );
#118 = PLANE( '', #155 );
#119 = FACE_OUTER_BOUND( '', #156, .T. );
#120 = FACE_BOUND( '', #157, .T. );
#121 = PLANE( '', #158 );
#122 = FACE_OUTER_BOUND( '', #159, .T. );
#123 = FACE_BOUND( '', #160, .T. );
#124 = CONICAL_SURFACE( '', #161, 4.70039279742371, 0.254294472015574 );
#125 = FACE_BOUND( '', #162, .T. );
#126 = FACE_OUTER_BOUND( '', #163, .T. );
#127 = PLANE( '', #164 );
#128 = EDGE_LOOP( '', ( #165 ) );
#129 = EDGE_LOOP( '', ( #166, #167, #168, #169, #170, #171 ) );
#130 = AXIS2_PLACEMENT_3D( '', #172, #173, #174 );
#131 = EDGE_LOOP( '', ( #175 ) );
#132 = EDGE_LOOP( '', ( #176 ) );
#133 = AXIS2_PLACEMENT_3D( '', #177, #178, #179 );
#134 = EDGE_LOOP( '', ( #180, #181, #182, #183 ) );
#135 = AXIS2_PLACEMENT_3D( '', #184, #185, #186 );
#136 = EDGE_LOOP( '', ( #187, #188, #189, #190 ) );
#137 = AXIS2_PLACEMENT_3D( '', #191, #192, #193 );
#138 = EDGE_LOOP( '', ( #194, #195, #196, #197, #198, #199 ) );
#139 = AXIS2_PLACEMENT_3D( '', #200, #201, #202 );
#140 = EDGE_LOOP( '', ( #203 ) );
#141 = EDGE_LOOP( '', ( #204 ) );
#142 = AXIS2_PLACEMENT_3D( '', #205, #206, #207 );
#143 = EDGE_LOOP( '', ( #208 ) );
#144 = AXIS2_PLACEMENT_3D( '', #209, #210, #211 );
#145 = EDGE_LOOP( '', ( #212 ) );
#146 = EDGE_LOOP( '', ( #213 ) );
#147 = AXIS2_PLACEMENT_3D( '', #214, #215, #216 );
#148 = EDGE_LOOP( '', ( #217, #218, #219, #220 ) );
#149 = AXIS2_PLACEMENT_3D( '', #221, #222, #223 );
#150 = EDGE_LOOP( '', ( #224, #225, #226, #227 ) );
#151 = AXIS2_PLACEMENT_3D( '', #228, #229, #230 );
#152 = EDGE_LOOP( '', ( #231, #232, #233, #234 ) );
#153 = AXIS2_PLACEMENT_3D( '', #235, #236, #237 );
#154 = EDGE_LOOP( '', ( #238, #239, #240, #241 ) );
#155 = AXIS2_PLACEMENT_3D( '', #242, #243, #244 );
#156 = EDGE_LOOP( '', ( #245 ) );
#157 = EDGE_LOOP( '', ( #246 ) );
#158 = AXIS2_PLACEMENT_3D( '', #247, #248, #249 );
#159 = EDGE_LOOP( '', ( #250 ) );
#160 = EDGE_LOOP( '', ( #251 ) );
#161 = AXIS2_PLACEMENT_3D( '', #252, #253, #254 );
#162 = EDGE_LOOP( '', ( #255 ) );
#163 = EDGE_LOOP( '', ( #256 ) );
#164 = AXIS2_PLACEMENT_3D( '', #257, #258, #259 );
#165 = ORIENTED_EDGE( '', *, *, #260, .T. );
#166 = ORIENTED_EDGE( '', *, *, #261, .T. );
#167 = ORIENTED_EDGE( '', *, *, #262, .T. );
#168 = ORIENTED_EDGE( '', *, *, #263, .T. );
#169 = ORIENTED_EDGE( '', *, *, #264, .T. );
#170 = ORIENTED_EDGE( '', *, *, #265, .T. );
#171 = ORIENTED_EDGE( '', *, *, #266, .T. );
#172 = CARTESIAN_POINT( '', ( 0.000000000000000, 0.000000000000000, -12.0000000000000 ) );
#173 = DIRECTION( '', ( 0.000000000000000, 0.000000000000000, -1.00000000000000 ) );
#174 = DIRECTION( '', ( -1.00000000000000, 0.000000000000000, 0.000000000000000 ) );
#175 = ORIENTED_EDGE( '', *, *, #267, .F. );
#176 = ORIENTED_EDGE( '', *, *, #260, .F. );
#177 = CARTESIAN_POINT( '', ( 0.000000000000000, 0.000000000000000, -12.0000000000000 ) );
#178 = DIRECTION( '', ( -0.000000000000000, -0.000000000000000, 1.00000000000000 ) );
#179 = DIRECTION( '', ( 1.00000000000000, 0.000000000000000, 0.000000000000000 ) );
#180 = ORIENTED_EDGE( '', *, *, #265, .F. );
#181 = ORIENTED_EDGE( '', *, *, #268, .F. );
#182 = ORIENTED_EDGE( '', *, *, #269, .T. );
#183 = ORIENTED_EDGE( '', *, *, #270, .T. );
#184 = CARTESIAN_POINT( '', ( -5.00000000000000, -2.88675134594812, -6.00000000000000 ) );
#185 = DIRECTION( '', ( 0.500000000000000, 0.866025403784438, 0.000000000000000 ) );
#186 = DIRECTION( '', ( -0.866025403784438, 0.500000000000000, 0.000000000000000 ) );
#187 = ORIENTED_EDGE( '', *, *, #266, .F. );
#188 = ORIENTED_EDGE( '', *, *, #270, .F. );
#189 = ORIENTED_EDGE( '', *, *, #271, .T. );
#190 = ORIENTED_EDGE( '', *, *, #272, .T. );
#191 = CARTESIAN_POINT( '', ( -1.30104260698260E-015, -5.77350269189626, -6.00000000000000 ) );
#192 = DIRECTION( '', ( -0.500000000000000, 0.866025403784439, 0.000000000000000 ) );
#193 = DIRECTION( '', ( -0.866025403784439, -0.500000000000000, 0.000000000000000 ) );
#194 = ORIENTED_EDGE( '', *, *, #273, .F. );
#195 = ORIENTED_EDGE( '', *, *, #274, .F. );
#196 = ORIENTED_EDGE( '', *, *, #271, .F. );
#197 = ORIENTED_EDGE( '', *, *, #269, .F. );
#198 = ORIENTED_EDGE( '', *, *, #275, .F. );
#199 = ORIENTED_EDGE( '', *, *, #276, .F. );
#200 = CARTESIAN_POINT( '', ( -5.00000000000000, 8.66025403784437, -6.00000000000000 ) );
#201 = DIRECTION( '', ( 0.000000000000000, 0.000000000000000, 1.00000000000000 ) );
#202 = DIRECTION( '', ( 1.00000000000000, 0.000000000000000, 0.000000000000000 ) );
#203 = ORIENTED_EDGE( '', *, *, #267, .T. );
#204 = ORIENTED_EDGE( '', *, *, #277, .T. );
#205 = CARTESIAN_POINT( '', ( 0.000000000000000, 0.000000000000000, -12.0000000000000 ) );
#206 = DIRECTION( '', ( -0.000000000000000, -0.000000000000000, -1.00000000000000 ) );
#207 = DIRECTION( '', ( 1.00000000000000, 0.000000000000000, 0.000000000000000 ) );
#208 = ORIENTED_EDGE( '', *, *, #278, .T. );
#209 = CARTESIAN_POINT( '', ( 0.000000000000000, 0.000000000000000, 41.8800000000000 ) );
#210 = DIRECTION( '', ( 0.000000000000000, 0.000000000000000, 1.00000000000000 ) );
#211 = DIRECTION( '', ( -6.12303176911189E-017, -1.00000000000000, 0.000000000000000 ) );
#212 = ORIENTED_EDGE( '', *, *, #279, .T. );
#213 = ORIENTED_EDGE( '', *, *, #280, .F. );
#214 = CARTESIAN_POINT( '', ( 0.000000000000000, 0.000000000000000, 43.6800000000000 ) );
#215 = DIRECTION( '', ( -0.000000000000000, -0.000000000000000, 1.00000000000000 ) );
#216 = DIRECTION( '', ( -1.00000000000000, 0.000000000000000, 0.000000000000000 ) );
#217 = ORIENTED_EDGE( '', *, *, #261, .F. );
#218 = ORIENTED_EDGE( '', *, *, #272, .F. );
#219 = ORIENTED_EDGE( '', *, *, #274, .T. );
#220 = ORIENTED_EDGE( '', *, *, #281, .T. );
#221 = CARTESIAN_POINT( '', ( 5.00000000000000, -2.88675134594812, -6.00000000000000 ) );
#222 = DIRECTION( '', ( -1.00000000000000, 0.000000000000000, 0.000000000000000 ) );
#223 = DIRECTION( '', ( 0.000000000000000, 0.000000000000000, 1.00000000000000 ) );
#224 = ORIENTED_EDGE( '', *, *, #262, .F. );
#225 = ORIENTED_EDGE( '', *, *, #281, .F. );
#226 = ORIENTED_EDGE( '', *, *, #273, .T. );
#227 = ORIENTED_EDGE( '', *, *, #282, .T. );
#228 = CARTESIAN_POINT( '', ( 5.00000000000000, 2.88675134594812, -6.00000000000000 ) );
#229 = DIRECTION( '', ( -0.500000000000000, -0.866025403784439, 0.000000000000000 ) );
#230 = DIRECTION( '', ( 0.866025403784439, -0.500000000000000, 0.000000000000000 ) );
#231 = ORIENTED_EDGE( '', *, *, #263, .F. );
#232 = ORIENTED_EDGE( '', *, *, #282, .F. );
#233 = ORIENTED_EDGE( '', *, *, #276, .T. );
#234 = ORIENTED_EDGE( '', *, *, #283, .T. );
#235 = CARTESIAN_POINT( '', ( -1.83526804863850E-015, 5.77350269189626, -6.00000000000000 ) );
#236 = DIRECTION( '', ( 0.500000000000000, -0.866025403784438, 0.000000000000000 ) );
#237 = DIRECTION( '', ( 0.866025403784438, 0.500000000000000, 0.000000000000000 ) );
#238 = ORIENTED_EDGE( '', *, *, #264, .F. );
#239 = ORIENTED_EDGE( '', *, *, #283, .F. );
#240 = ORIENTED_EDGE( '', *, *, #275, .T. );
#241 = ORIENTED_EDGE( '', *, *, #268, .T. );
#242 = CARTESIAN_POINT( '', ( -5.00000000000000, 2.88675134594812, -6.00000000000000 ) );
#243 = DIRECTION( '', ( 1.00000000000000, 0.000000000000000, 0.000000000000000 ) );
#244 = DIRECTION( '', ( 0.000000000000000, 0.000000000000000, -1.00000000000000 ) );
#245 = ORIENTED_EDGE( '', *, *, #277, .F. );
#246 = ORIENTED_EDGE( '', *, *, #280, .T. );
#247 = CARTESIAN_POINT( '', ( 0.000000000000000, 0.000000000000000, 0.000000000000000 ) );
#248 = DIRECTION( '', ( 0.000000000000000, 0.000000000000000, -1.00000000000000 ) );
#249 = DIRECTION( '', ( -1.00000000000000, 0.000000000000000, 0.000000000000000 ) );
#250 = ORIENTED_EDGE( '', *, *, #279, .F. );
#251 = ORIENTED_EDGE( '', *, *, #284, .F. );
#252 = CARTESIAN_POINT( '', ( 0.000000000000000, 0.000000000000000, 43.6800000000000 ) );
#253 = DIRECTION( '', ( -0.000000000000000, 0.000000000000000, -1.00000000000000 ) );
#254 = DIRECTION( '', ( -1.00000000000000, 0.000000000000000, 0.000000000000000 ) );
#255 = ORIENTED_EDGE( '', *, *, #278, .F. );
#256 = ORIENTED_EDGE( '', *, *, #284, .T. );
#257 = CARTESIAN_POINT( '', ( 0.000000000000000, 0.000000000000000, 43.6800000000000 ) );
#258 = DIRECTION( '', ( 0.000000000000000, 0.000000000000000, 1.00000000000000 ) );
#259 = DIRECTION( '', ( 1.00000000000000, 0.000000000000000, 0.000000000000000 ) );
#260 = EDGE_CURVE( '', #285, #285, #286, .T. );
#261 = EDGE_CURVE( '', #287, #288, #289, .T. );
#262 = EDGE_CURVE( '', #288, #290, #291, .T. );
#263 = EDGE_CURVE( '', #290, #292, #293, .T. );
#264 = EDGE_CURVE( '', #292, #294, #295, .T. );
#265 = EDGE_CURVE( '', #294, #296, #297, .T. );
#266 = EDGE_CURVE( '', #296, #287, #298, .T. );
#267 = EDGE_CURVE( '', #299, #299, #300, .F. );
#268 = EDGE_CURVE( '', #301, #294, #302, .T. );
#269 = EDGE_CURVE( '', #301, #303, #304, .T. );
#270 = EDGE_CURVE( '', #303, #296, #305, .T. );
#271 = EDGE_CURVE( '', #303, #306, #307, .T. );
#272 = EDGE_CURVE( '', #306, #287, #308, .T. );
#273 = EDGE_CURVE( '', #309, #310, #311, .T. );
#274 = EDGE_CURVE( '', #306, #309, #312, .T. );
#275 = EDGE_CURVE( '', #313, #301, #314, .T. );
#276 = EDGE_CURVE( '', #310, #313, #315, .T. );
#277 = EDGE_CURVE( '', #316, #316, #317, .T. );
#278 = EDGE_CURVE( '', #318, #318, #319, .T. );
#279 = EDGE_CURVE( '', #320, #320, #321, .F. );
#280 = EDGE_CURVE( '', #322, #322, #323, .T. );
#281 = EDGE_CURVE( '', #309, #288, #324, .T. );
#282 = EDGE_CURVE( '', #310, #290, #325, .T. );
#283 = EDGE_CURVE( '', #313, #292, #326, .T. );
#284 = EDGE_CURVE( '', #327, #327, #328, .T. );
#285 = VERTEX_POINT( '', #329 );
#286 = CIRCLE( '', #330, 8.30000000000000 );
#287 = VERTEX_POINT( '', #331 );
#288 = VERTEX_POINT( '', #332 );
#289 = LINE( '', #333, #334 );
#290 = VERTEX_POINT( '', #335 );
#291 = LINE( '', #336, #337 );
#292 = VERTEX_POINT( '', #338 );
#293 = LINE( '', #339, #340 );
#294 = VERTEX_POINT( '', #341 );
#295 = LINE( '', #342, #343 );
#296 = VERTEX_POINT( '', #344 );
#297 = LINE( '', #345, #346 );
#298 = LINE( '', #347, #348 );
#299 = VERTEX_POINT( '', #349 );
#300 = CIRCLE( '', #350, 9.00000000000000 );
#301 = VERTEX_POINT( '', #351 );
#302 = LINE( '', #352, #353 );
#303 = VERTEX_POINT( '', #354 );
#304 = LINE( '', #355, #356 );
#305 = LINE( '', #357, #358 );
#306 = VERTEX_POINT( '', #359 );
#307 = LINE( '', #360, #361 );
#308 = LINE( '', #362, #363 );
#309 = VERTEX_POINT( '', #364 );
#310 = VERTEX_POINT( '', #365 );
#311 = LINE( '', #366, #367 );
#312 = LINE( '', #368, #369 );
#313 = VERTEX_POINT( '', #370 );
#314 = LINE( '', #371, #372 );
#315 = LINE( '', #373, #374 );
#316 = VERTEX_POINT( '', #375 );
#317 = CIRCLE( '', #376, 9.00000000000000 );
#318 = VERTEX_POINT( '', #377 );
#319 = CIRCLE( '', #378, 3.97713342119673 );
#320 = VERTEX_POINT( '', #379 );
#321 = CIRCLE( '', #380, 6.00000000000000 );
#322 = VERTEX_POINT( '', #381 );
#323 = CIRCLE( '', #382, 6.00000000000000 );
#324 = LINE( '', #383, #384 );
#325 = LINE( '', #385, #386 );
#326 = LINE( '', #387, #388 );
#327 = VERTEX_POINT( '', #389 );
#328 = CIRCLE( '', #390, 4.70039279742371 );
#329 = CARTESIAN_POINT( '', ( -8.30000000000000, 0.000000000000000, -12.0000000000000 ) );
#330 = AXIS2_PLACEMENT_3D( '', #391, #392, #393 );
#331 = CARTESIAN_POINT( '', ( 5.00000000000000, -2.88675134594812, -12.0000000000000 ) );
#332 = CARTESIAN_POINT( '', ( 5.00000000000000, 2.88675134594812, -12.0000000000000 ) );
#333 = CARTESIAN_POINT( '', ( 5.00000000000000, -2.88675134594812, -12.0000000000000 ) );
#334 = VECTOR( '', #394, 1000.00000000000 );
#335 = CARTESIAN_POINT( '', ( -1.83526804863850E-015, 5.77350269189626, -12.0000000000000 ) );
#336 = CARTESIAN_POINT( '', ( 5.00000000000000, 2.88675134594812, -12.0000000000000 ) );
#337 = VECTOR( '', #395, 1000.00000000000 );
#338 = CARTESIAN_POINT( '', ( -5.00000000000000, 2.88675134594812, -12.0000000000000 ) );
#339 = CARTESIAN_POINT( '', ( -1.83526804863850E-015, 5.77350269189626, -12.0000000000000 ) );
#340 = VECTOR( '', #396, 999.999999999999 );
#341 = CARTESIAN_POINT( '', ( -5.00000000000000, -2.88675134594812, -12.0000000000000 ) );
#342 = CARTESIAN_POINT( '', ( -5.00000000000000, 2.88675134594812, -12.0000000000000 ) );
#343 = VECTOR( '', #397, 1000.00000000000 );
#344 = CARTESIAN_POINT( '', ( -8.67361737988404E-016, -5.77350269189626, -12.0000000000000 ) );
#345 = CARTESIAN_POINT( '', ( -5.00000000000000, -2.88675134594812, -12.0000000000000 ) );
#346 = VECTOR( '', #398, 999.999999999999 );
#347 = CARTESIAN_POINT( '', ( -1.30104260698260E-015, -5.77350269189626, -12.0000000000000 ) );
#348 = VECTOR( '', #399, 1000.00000000000 );
#349 = CARTESIAN_POINT( '', ( -9.00000000000000, 0.000000000000000, -11.3000000000000 ) );
#350 = AXIS2_PLACEMENT_3D( '', #400, #401, #402 );
#351 = CARTESIAN_POINT( '', ( -5.00000000000000, -2.88675134594812, -6.00000000000000 ) );
#352 = CARTESIAN_POINT( '', ( -5.00000000000000, -2.88675134594812, -6.00000000000000 ) );
#353 = VECTOR( '', #403, 1000.00000000000 );
#354 = CARTESIAN_POINT( '', ( -8.67361737988404E-016, -5.77350269189626, -6.00000000000000 ) );
#355 = CARTESIAN_POINT( '', ( -5.00000000000000, -2.88675134594812, -6.00000000000000 ) );
#356 = VECTOR( '', #404, 999.999999999999 );
#357 = CARTESIAN_POINT( '', ( -8.67361737988404E-016, -5.77350269189626, -6.00000000000000 ) );
#358 = VECTOR( '', #405, 1000.00000000000 );
#359 = CARTESIAN_POINT( '', ( 5.00000000000000, -2.88675134594812, -6.00000000000000 ) );
#360 = CARTESIAN_POINT( '', ( -1.30104260698260E-015, -5.77350269189626, -6.00000000000000 ) );
#361 = VECTOR( '', #406, 1000.00000000000 );
#362 = CARTESIAN_POINT( '', ( 5.00000000000000, -2.88675134594812, -6.00000000000000 ) );
#363 = VECTOR( '', #407, 1000.00000000000 );
#364 = CARTESIAN_POINT( '', ( 5.00000000000000, 2.88675134594812, -6.00000000000000 ) );
#365 = CARTESIAN_POINT( '', ( -1.83526804863850E-015, 5.77350269189626, -6.00000000000000 ) );
#366 = CARTESIAN_POINT( '', ( 5.00000000000000, 2.88675134594812, -6.00000000000000 ) );
#367 = VECTOR( '', #408, 1000.00000000000 );
#368 = CARTESIAN_POINT( '', ( 5.00000000000000, -2.88675134594812, -6.00000000000000 ) );
#369 = VECTOR( '', #409, 1000.00000000000 );
#370 = CARTESIAN_POINT( '', ( -5.00000000000000, 2.88675134594812, -6.00000000000000 ) );
#371 = CARTESIAN_POINT( '', ( -5.00000000000000, 2.88675134594812, -6.00000000000000 ) );
#372 = VECTOR( '', #410, 1000.00000000000 );
#373 = CARTESIAN_POINT( '', ( -1.83526804863850E-015, 5.77350269189626, -6.00000000000000 ) );
#374 = VECTOR( '', #411, 999.999999999999 );
#375 = CARTESIAN_POINT( '', ( 0.000000000000000, 9.00000000000000, 0.000000000000000 ) );
#376 = AXIS2_PLACEMENT_3D( '', #412, #413, #414 );
#377 = CARTESIAN_POINT( '', ( 3.97713342119673, 0.000000000000000, 43.6800000000000 ) );
#378 = AXIS2_PLACEMENT_3D( '', #415, #416, #417 );
#379 = CARTESIAN_POINT( '', ( 6.00000000000000, 0.000000000000000, 38.6800000000000 ) );
#380 = AXIS2_PLACEMENT_3D( '', #418, #419, #420 );
#381 = CARTESIAN_POINT( '', ( -6.00000000000000, 0.000000000000000, 0.000000000000000 ) );
#382 = AXIS2_PLACEMENT_3D( '', #421, #422, #423 );
#383 = CARTESIAN_POINT( '', ( 5.00000000000000, 2.88675134594812, -6.00000000000000 ) );
#384 = VECTOR( '', #424, 1000.00000000000 );
#385 = CARTESIAN_POINT( '', ( -1.83526804863850E-015, 5.77350269189626, -6.00000000000000 ) );
#386 = VECTOR( '', #425, 1000.00000000000 );
#387 = CARTESIAN_POINT( '', ( -5.00000000000000, 2.88675134594812, -6.00000000000000 ) );
#388 = VECTOR( '', #426, 1000.00000000000 );
#389 = CARTESIAN_POINT( '', ( 4.70039279742371, 0.000000000000000, 43.6800000000000 ) );
#390 = AXIS2_PLACEMENT_3D( '', #427, #428, #429 );
#391 = CARTESIAN_POINT( '', ( 0.000000000000000, 0.000000000000000, -12.0000000000000 ) );
#392 = DIRECTION( '', ( 0.000000000000000, 0.000000000000000, -1.00000000000000 ) );
#393 = DIRECTION( '', ( -1.00000000000000, 0.000000000000000, 0.000000000000000 ) );
#394 = DIRECTION( '', ( 0.000000000000000, 1.00000000000000, 0.000000000000000 ) );
#395 = DIRECTION( '', ( -0.866025403784439, 0.500000000000000, 0.000000000000000 ) );
#396 = DIRECTION( '', ( -0.866025403784438, -0.500000000000000, 0.000000000000000 ) );
#397 = DIRECTION( '', ( 0.000000000000000, -1.00000000000000, 0.000000000000000 ) );
#398 = DIRECTION( '', ( 0.866025403784438, -0.500000000000000, 0.000000000000000 ) );
#399 = DIRECTION( '', ( 0.866025403784439, 0.500000000000000, 0.000000000000000 ) );
#400 = CARTESIAN_POINT( '', ( 0.000000000000000, 0.000000000000000, -11.3000000000000 ) );
#401 = DIRECTION( '', ( 0.000000000000000, 0.000000000000000, -1.00000000000000 ) );
#402 = DIRECTION( '', ( -1.00000000000000, 0.000000000000000, 0.000000000000000 ) );
#403 = DIRECTION( '', ( 0.000000000000000, 0.000000000000000, -1.00000000000000 ) );
#404 = DIRECTION( '', ( 0.866025403784438, -0.500000000000000, 0.000000000000000 ) );
#405 = DIRECTION( '', ( 0.000000000000000, 0.000000000000000, -1.00000000000000 ) );
#406 = DIRECTION( '', ( 0.866025403784439, 0.500000000000000, 0.000000000000000 ) );
#407 = DIRECTION( '', ( 0.000000000000000, 0.000000000000000, -1.00000000000000 ) );
#408 = DIRECTION( '', ( -0.866025403784439, 0.500000000000000, 0.000000000000000 ) );
#409 = DIRECTION( '', ( 0.000000000000000, 1.00000000000000, 0.000000000000000 ) );
#410 = DIRECTION( '', ( 0.000000000000000, -1.00000000000000, 0.000000000000000 ) );
#411 = DIRECTION( '', ( -0.866025403784438, -0.500000000000000, 0.000000000000000 ) );
#412 = CARTESIAN_POINT( '', ( 0.000000000000000, 0.000000000000000, 0.000000000000000 ) );
#413 = DIRECTION( '', ( 0.000000000000000, 0.000000000000000, -1.00000000000000 ) );
#414 = DIRECTION( '', ( 0.000000000000000, 1.00000000000000, 0.000000000000000 ) );
#415 = CARTESIAN_POINT( '', ( 0.000000000000000, 0.000000000000000, 43.6800000000000 ) );
#416 = DIRECTION( '', ( 0.000000000000000, 0.000000000000000, 1.00000000000000 ) );
#417 = DIRECTION( '', ( 1.00000000000000, 0.000000000000000, 0.000000000000000 ) );
#418 = CARTESIAN_POINT( '', ( 0.000000000000000, 0.000000000000000, 38.6800000000000 ) );
#419 = DIRECTION( '', ( 0.000000000000000, 0.000000000000000, 1.00000000000000 ) );
#420 = DIRECTION( '', ( 1.00000000000000, 0.000000000000000, 0.000000000000000 ) );
#421 = CARTESIAN_POINT( '', ( 0.000000000000000, 0.000000000000000, 0.000000000000000 ) );
#422 = DIRECTION( '', ( 0.000000000000000, 0.000000000000000, -1.00000000000000 ) );
#423 = DIRECTION( '', ( -1.00000000000000, 0.000000000000000, 0.000000000000000 ) );
#424 = DIRECTION( '', ( 0.000000000000000, 0.000000000000000, -1.00000000000000 ) );
#425 = DIRECTION( '', ( 0.000000000000000, 0.000000000000000, -1.00000000000000 ) );
#426 = DIRECTION( '', ( 0.000000000000000, 0.000000000000000, -1.00000000000000 ) );
#427 = CARTESIAN_POINT( '', ( 0.000000000000000, 0.000000000000000, 43.6800000000000 ) );
#428 = DIRECTION( '', ( 0.000000000000000, 0.000000000000000, 1.00000000000000 ) );
#429 = DIRECTION( '', ( 1.00000000000000, 0.000000000000000, 0.000000000000000 ) );
ENDSEC;
END-ISO-10303-21;
