ISO-10303-21;
HEADER;
FILE_DESCRIPTION( ( 'Unknown' ), '1' );
FILE_NAME( 's:/LEAVE 2D&3D CAD/LEAVE 3D-PAR/Metric/PT/PT17-3D/PT17A-1025.stp', 'Unknown', ( 'Unknown' ), ( 'Unknown' ), 'XStep 1.0', 'Unknown', '  ' );
FILE_SCHEMA( ( 'CONFIG_CONTROL_DESIGN' ) );
ENDSEC;
DATA;
#1 = DESIGN_CONTEXT( '', #27, 'design' );
#2 = APPLICATION_PROTOCOL_DEFINITION( 'INTERNATIONAL STANDARD', 'config_control_design', 1994, #27 );
#3 = PRODUCT_CATEGORY_RELATIONSHIP( 'NONE', 'NONE', #28, #29 );
#4 = DATE_AND_TIME( #30, #31 );
#5 = DATE_TIME_ROLE( 'creation_date' );
#6 = DATE_TIME_ROLE( 'classification_date' );
#7 = PERSON_AND_ORGANIZATION_ROLE( 'creator' );
#8 = PERSON_AND_ORGANIZATION_ROLE( 'design_supplier' );
#9 = PERSON_AND_ORGANIZATION_ROLE( 'classification_officer' );
#10 = PERSON_AND_ORGANIZATION_ROLE( 'design_owner' );
#11 = APPROVAL_PERSON_ORGANIZATION( #32, #33, #34 );
#12 = APPROVAL_DATE_TIME( #4, #33 );
#13 = CC_DESIGN_APPROVAL( #33, ( #35, #36, #37 ) );
#14 = CC_DESIGN_DATE_AND_TIME_ASSIGNMENT( #4, #5, ( #37 ) );
#15 = CC_DESIGN_DATE_AND_TIME_ASSIGNMENT( #4, #6, ( #35 ) );
#16 = CC_DESIGN_PERSON_AND_ORGANIZATION_ASSIGNMENT( #32, #10, ( #38 ) );
#17 = CC_DESIGN_PERSON_AND_ORGANIZATION_ASSIGNMENT( #32, #7, ( #37 ) );
#18 = CC_DESIGN_PERSON_AND_ORGANIZATION_ASSIGNMENT( #32, #7, ( #36 ) );
#19 = CC_DESIGN_PERSON_AND_ORGANIZATION_ASSIGNMENT( #32, #8, ( #36 ) );
#20 = CC_DESIGN_SECURITY_CLASSIFICATION( #35, ( #36 ) );
#21 = CC_DESIGN_PERSON_AND_ORGANIZATION_ASSIGNMENT( #32, #9, ( #35 ) );
#22 = SHAPE_DEFINITION_REPRESENTATION( #39, #40 );
#23 =  ( GEOMETRIC_REPRESENTATION_CONTEXT( 3 )GLOBAL_UNCERTAINTY_ASSIGNED_CONTEXT( ( #43 ) )GLOBAL_UNIT_ASSIGNED_CONTEXT( ( #45, #46, #47 ) )REPRESENTATION_CONTEXT( 'NONE', 'WORKSPACE' ) );
#27 = APPLICATION_CONTEXT( 'CONFIGURATION CONTROLLED 3D DESIGNS OF MECHANICAL PARTS AND ASSEMBLIES' );
#28 = PRODUCT_CATEGORY( 'part', 'NONE' );
#29 = PRODUCT_RELATED_PRODUCT_CATEGORY( 'detail', ' ', ( #38 ) );
#30 = CALENDAR_DATE( 2010, 5, 0 );
#31 = LOCAL_TIME( 10, 18, 9.00000000000000, #49 );
#32 = PERSON_AND_ORGANIZATION( #50, #51 );
#33 = APPROVAL( #52, 'SOLID MODEL' );
#34 = APPROVAL_ROLE( 'APPROVED' );
#35 = SECURITY_CLASSIFICATION( '', '', #53 );
#36 = PRODUCT_DEFINITION_FORMATION_WITH_SPECIFIED_SOURCE( ' ', 'NONE', #38, .NOT_KNOWN. );
#37 = PRODUCT_DEFINITION( 'NONE', 'NONE', #36, #1 );
#38 = PRODUCT( '1', '1', 'PART-1-DESC', ( #54 ) );
#39 = PRODUCT_DEFINITION_SHAPE( 'NONE', 'NONE', #37 );
#40 = ADVANCED_BREP_SHAPE_REPRESENTATION( '1', ( #55, #56 ), #23 );
#43 = UNCERTAINTY_MEASURE_WITH_UNIT( LENGTH_MEASURE( 0.00100000000000000 ), #45, '', '' );
#45 =  ( CONVERSION_BASED_UNIT( 'MILLIMETRE', #59 )LENGTH_UNIT(  )NAMED_UNIT( #62 ) );
#46 =  ( NAMED_UNIT( #64 )PLANE_ANGLE_UNIT(  )SI_UNIT( $, .RADIAN. ) );
#47 =  ( NAMED_UNIT( #64 )SOLID_ANGLE_UNIT(  )SI_UNIT( $, .STERADIAN. ) );
#49 = COORDINATED_UNIVERSAL_TIME_OFFSET( 8, 0, .AHEAD. );
#50 = PERSON( '', 'UNSPECIFIED', $, $, $, $ );
#51 = ORGANIZATION( 'UNSPECIFIED', 'UNSPECIFIED', 'UNSPECIFIED' );
#52 = APPROVAL_STATUS( 'approved' );
#53 = SECURITY_CLASSIFICATION_LEVEL( 'unclassified' );
#54 = MECHANICAL_CONTEXT( '', #27, 'mechanical' );
#55 = MANIFOLD_SOLID_BREP( '1', #70 );
#56 = AXIS2_PLACEMENT_3D( '', #71, #72, #73 );
#59 = LENGTH_MEASURE_WITH_UNIT( LENGTH_MEASURE( 1.00000000000000 ), #74 );
#62 = DIMENSIONAL_EXPONENTS( 1.00000000000000, 0.000000000000000, 0.000000000000000, 0.000000000000000, 0.000000000000000, 0.000000000000000, 0.000000000000000 );
#64 = DIMENSIONAL_EXPONENTS( 0.000000000000000, 0.000000000000000, 0.000000000000000, 0.000000000000000, 0.000000000000000, 0.000000000000000, 0.000000000000000 );
#70 = CLOSED_SHELL( '', ( #75, #76, #77, #78, #79, #80, #81, #82, #83, #84, #85, #86, #87, #88, #89, #90 ) );
#71 = CARTESIAN_POINT( '', ( 0.000000000000000, 0.000000000000000, 0.000000000000000 ) );
#72 = DIRECTION( '', ( 0.000000000000000, 0.000000000000000, 1.00000000000000 ) );
#73 = DIRECTION( '', ( 1.00000000000000, 0.000000000000000, 0.000000000000000 ) );
#74 =  ( NAMED_UNIT( #62 )LENGTH_UNIT(  )SI_UNIT( .MILLI., .METRE. ) );
#75 = ADVANCED_FACE( '', ( #92, #93 ), #94, .T. );
#76 = ADVANCED_FACE( '', ( #95, #96 ), #97, .F. );
#77 = ADVANCED_FACE( '', ( #98 ), #99, .T. );
#78 = ADVANCED_FACE( '', ( #100 ), #101, .T. );
#79 = ADVANCED_FACE( '', ( #102 ), #103, .F. );
#80 = ADVANCED_FACE( '', ( #104, #105 ), #106, .F. );
#81 = ADVANCED_FACE( '', ( #107 ), #108, .T. );
#82 = ADVANCED_FACE( '', ( #109, #110 ), #111, .T. );
#83 = ADVANCED_FACE( '', ( #112, #113 ), #114, .T. );
#84 = ADVANCED_FACE( '', ( #115, #116 ), #117, .T. );
#85 = ADVANCED_FACE( '', ( #118 ), #119, .T. );
#86 = ADVANCED_FACE( '', ( #120, #121 ), #122, .T. );
#87 = ADVANCED_FACE( '', ( #123, #124 ), #125, .T. );
#88 = ADVANCED_FACE( '', ( #126 ), #127, .T. );
#89 = ADVANCED_FACE( '', ( #128 ), #129, .T. );
#90 = ADVANCED_FACE( '', ( #130 ), #131, .T. );
#92 = FACE_OUTER_BOUND( '', #132, .T. );
#93 = FACE_BOUND( '', #133, .T. );
#94 = PLANE( '', #134 );
#95 = FACE_OUTER_BOUND( '', #135, .T. );
#96 = FACE_OUTER_BOUND( '', #136, .T. );
#97 = TOROIDAL_SURFACE( '', #137, 5.40000000000000, 0.400000000000000 );
#98 = FACE_OUTER_BOUND( '', #138, .T. );
#99 = PLANE( '', #139 );
#100 = FACE_OUTER_BOUND( '', #140, .T. );
#101 = PLANE( '', #141 );
#102 = FACE_OUTER_BOUND( '', #142, .T. );
#103 = PLANE( '', #143 );
#104 = FACE_BOUND( '', #144, .T. );
#105 = FACE_OUTER_BOUND( '', #145, .T. );
#106 = PLANE( '', #146 );
#107 = FACE_OUTER_BOUND( '', #147, .T. );
#108 = SPHERICAL_SURFACE( '', #148, 3.50000000000000 );
#109 = FACE_OUTER_BOUND( '', #149, .T. );
#110 = FACE_BOUND( '', #150, .T. );
#111 = CONICAL_SURFACE( '', #151, 7.40000000000000, 0.785398163397448 );
#112 = FACE_OUTER_BOUND( '', #152, .T. );
#113 = FACE_OUTER_BOUND( '', #153, .T. );
#114 = CYLINDRICAL_SURFACE( '', #154, 5.00000000000000 );
#115 = FACE_BOUND( '', #155, .T. );
#116 = FACE_OUTER_BOUND( '', #156, .T. );
#117 = PLANE( '', #157 );
#118 = FACE_OUTER_BOUND( '', #158, .T. );
#119 = PLANE( '', #159 );
#120 = FACE_OUTER_BOUND( '', #160, .T. );
#121 = FACE_OUTER_BOUND( '', #161, .T. );
#122 = CYLINDRICAL_SURFACE( '', #162, 8.00000000000000 );
#123 = FACE_OUTER_BOUND( '', #163, .T. );
#124 = FACE_BOUND( '', #164, .T. );
#125 = CONICAL_SURFACE( '', #165, 3.84961807767708, 0.250280214735987 );
#126 = FACE_OUTER_BOUND( '', #166, .T. );
#127 = PLANE( '', #167 );
#128 = FACE_OUTER_BOUND( '', #168, .T. );
#129 = PLANE( '', #169 );
#130 = FACE_OUTER_BOUND( '', #170, .T. );
#131 = PLANE( '', #171 );
#132 = EDGE_LOOP( '', ( #172 ) );
#133 = EDGE_LOOP( '', ( #173, #174, #175, #176, #177, #178 ) );
#134 = AXIS2_PLACEMENT_3D( '', #179, #180, #181 );
#135 = EDGE_LOOP( '', ( #182 ) );
#136 = EDGE_LOOP( '', ( #183 ) );
#137 = AXIS2_PLACEMENT_3D( '', #184, #185, #186 );
#138 = EDGE_LOOP( '', ( #187, #188, #189, #190 ) );
#139 = AXIS2_PLACEMENT_3D( '', #191, #192, #193 );
#140 = EDGE_LOOP( '', ( #194, #195, #196, #197 ) );
#141 = AXIS2_PLACEMENT_3D( '', #198, #199, #200 );
#142 = EDGE_LOOP( '', ( #201, #202, #203, #204, #205, #206 ) );
#143 = AXIS2_PLACEMENT_3D( '', #207, #208, #209 );
#144 = EDGE_LOOP( '', ( #210 ) );
#145 = EDGE_LOOP( '', ( #211 ) );
#146 = AXIS2_PLACEMENT_3D( '', #212, #213, #214 );
#147 = EDGE_LOOP( '', ( #215 ) );
#148 = AXIS2_PLACEMENT_3D( '', #216, #217, #218 );
#149 = EDGE_LOOP( '', ( #219 ) );
#150 = EDGE_LOOP( '', ( #220 ) );
#151 = AXIS2_PLACEMENT_3D( '', #221, #222, #223 );
#152 = EDGE_LOOP( '', ( #224 ) );
#153 = EDGE_LOOP( '', ( #225 ) );
#154 = AXIS2_PLACEMENT_3D( '', #226, #227, #228 );
#155 = EDGE_LOOP( '', ( #229 ) );
#156 = EDGE_LOOP( '', ( #230 ) );
#157 = AXIS2_PLACEMENT_3D( '', #231, #232, #233 );
#158 = EDGE_LOOP( '', ( #234, #235, #236, #237 ) );
#159 = AXIS2_PLACEMENT_3D( '', #238, #239, #240 );
#160 = EDGE_LOOP( '', ( #241 ) );
#161 = EDGE_LOOP( '', ( #242 ) );
#162 = AXIS2_PLACEMENT_3D( '', #243, #244, #245 );
#163 = EDGE_LOOP( '', ( #246 ) );
#164 = EDGE_LOOP( '', ( #247 ) );
#165 = AXIS2_PLACEMENT_3D( '', #248, #249, #250 );
#166 = EDGE_LOOP( '', ( #251, #252, #253, #254 ) );
#167 = AXIS2_PLACEMENT_3D( '', #255, #256, #257 );
#168 = EDGE_LOOP( '', ( #258, #259, #260, #261 ) );
#169 = AXIS2_PLACEMENT_3D( '', #262, #263, #264 );
#170 = EDGE_LOOP( '', ( #265, #266, #267, #268 ) );
#171 = AXIS2_PLACEMENT_3D( '', #269, #270, #271 );
#172 = ORIENTED_EDGE( '', *, *, #272, .T. );
#173 = ORIENTED_EDGE( '', *, *, #273, .T. );
#174 = ORIENTED_EDGE( '', *, *, #274, .T. );
#175 = ORIENTED_EDGE( '', *, *, #275, .T. );
#176 = ORIENTED_EDGE( '', *, *, #276, .T. );
#177 = ORIENTED_EDGE( '', *, *, #277, .T. );
#178 = ORIENTED_EDGE( '', *, *, #278, .T. );
#179 = CARTESIAN_POINT( '', ( 0.000000000000000, 0.000000000000000, -10.0000000000000 ) );
#180 = DIRECTION( '', ( 0.000000000000000, 0.000000000000000, -1.00000000000000 ) );
#181 = DIRECTION( '', ( -1.00000000000000, 0.000000000000000, 0.000000000000000 ) );
#182 = ORIENTED_EDGE( '', *, *, #279, .F. );
#183 = ORIENTED_EDGE( '', *, *, #280, .F. );
#184 = CARTESIAN_POINT( '', ( 0.000000000000000, 0.000000000000000, 0.400000000000000 ) );
#185 = DIRECTION( '', ( 0.000000000000000, 0.000000000000000, -1.00000000000000 ) );
#186 = DIRECTION( '', ( -1.00000000000000, 0.000000000000000, 0.000000000000000 ) );
#187 = ORIENTED_EDGE( '', *, *, #277, .F. );
#188 = ORIENTED_EDGE( '', *, *, #281, .F. );
#189 = ORIENTED_EDGE( '', *, *, #282, .T. );
#190 = ORIENTED_EDGE( '', *, *, #283, .T. );
#191 = CARTESIAN_POINT( '', ( 4.00000000000000, 2.30940107675850, -5.00000000000000 ) );
#192 = DIRECTION( '', ( -0.500000000000000, -0.866025403784438, 0.000000000000000 ) );
#193 = DIRECTION( '', ( 0.866025403784438, -0.500000000000000, 0.000000000000000 ) );
#194 = ORIENTED_EDGE( '', *, *, #278, .F. );
#195 = ORIENTED_EDGE( '', *, *, #283, .F. );
#196 = ORIENTED_EDGE( '', *, *, #284, .T. );
#197 = ORIENTED_EDGE( '', *, *, #285, .T. );
#198 = CARTESIAN_POINT( '', ( 9.75781955236954E-016, 4.61880215351700, -5.00000000000000 ) );
#199 = DIRECTION( '', ( 0.500000000000000, -0.866025403784439, 0.000000000000000 ) );
#200 = DIRECTION( '', ( 0.866025403784439, 0.500000000000000, 0.000000000000000 ) );
#201 = ORIENTED_EDGE( '', *, *, #286, .F. );
#202 = ORIENTED_EDGE( '', *, *, #287, .F. );
#203 = ORIENTED_EDGE( '', *, *, #284, .F. );
#204 = ORIENTED_EDGE( '', *, *, #282, .F. );
#205 = ORIENTED_EDGE( '', *, *, #288, .F. );
#206 = ORIENTED_EDGE( '', *, *, #289, .F. );
#207 = CARTESIAN_POINT( '', ( 4.00000000000000, -6.92820323027550, -5.00000000000000 ) );
#208 = DIRECTION( '', ( 0.000000000000000, 0.000000000000000, 1.00000000000000 ) );
#209 = DIRECTION( '', ( 1.00000000000000, 0.000000000000000, 0.000000000000000 ) );
#210 = ORIENTED_EDGE( '', *, *, #280, .T. );
#211 = ORIENTED_EDGE( '', *, *, #290, .F. );
#212 = CARTESIAN_POINT( '', ( 0.000000000000000, 0.000000000000000, 0.000000000000000 ) );
#213 = DIRECTION( '', ( 0.000000000000000, 0.000000000000000, -1.00000000000000 ) );
#214 = DIRECTION( '', ( -1.00000000000000, 0.000000000000000, 0.000000000000000 ) );
#215 = ORIENTED_EDGE( '', *, *, #291, .T. );
#216 = CARTESIAN_POINT( '', ( 0.000000000000000, 0.000000000000000, 21.4500000000000 ) );
#217 = DIRECTION( '', ( 0.000000000000000, 0.000000000000000, 1.00000000000000 ) );
#218 = DIRECTION( '', ( -6.12303176911189E-017, -1.00000000000000, 0.000000000000000 ) );
#219 = ORIENTED_EDGE( '', *, *, #292, .F. );
#220 = ORIENTED_EDGE( '', *, *, #272, .F. );
#221 = CARTESIAN_POINT( '', ( 0.000000000000000, 0.000000000000000, -10.0000000000000 ) );
#222 = DIRECTION( '', ( -0.000000000000000, -0.000000000000000, 1.00000000000000 ) );
#223 = DIRECTION( '', ( 1.00000000000000, 0.000000000000000, 0.000000000000000 ) );
#224 = ORIENTED_EDGE( '', *, *, #279, .T. );
#225 = ORIENTED_EDGE( '', *, *, #293, .T. );
#226 = CARTESIAN_POINT( '', ( 0.000000000000000, 0.000000000000000, 22.4500000000000 ) );
#227 = DIRECTION( '', ( -0.000000000000000, -0.000000000000000, 1.00000000000000 ) );
#228 = DIRECTION( '', ( -1.00000000000000, 0.000000000000000, 0.000000000000000 ) );
#229 = ORIENTED_EDGE( '', *, *, #291, .F. );
#230 = ORIENTED_EDGE( '', *, *, #294, .T. );
#231 = CARTESIAN_POINT( '', ( 0.000000000000000, 0.000000000000000, 22.4500000000000 ) );
#232 = DIRECTION( '', ( 0.000000000000000, 0.000000000000000, 1.00000000000000 ) );
#233 = DIRECTION( '', ( 1.00000000000000, 0.000000000000000, 0.000000000000000 ) );
#234 = ORIENTED_EDGE( '', *, *, #274, .F. );
#235 = ORIENTED_EDGE( '', *, *, #295, .F. );
#236 = ORIENTED_EDGE( '', *, *, #286, .T. );
#237 = ORIENTED_EDGE( '', *, *, #296, .T. );
#238 = CARTESIAN_POINT( '', ( -4.00000000000000, -2.30940107675850, -5.00000000000000 ) );
#239 = DIRECTION( '', ( 0.500000000000000, 0.866025403784439, 0.000000000000000 ) );
#240 = DIRECTION( '', ( -0.866025403784439, 0.500000000000000, 0.000000000000000 ) );
#241 = ORIENTED_EDGE( '', *, *, #292, .T. );
#242 = ORIENTED_EDGE( '', *, *, #290, .T. );
#243 = CARTESIAN_POINT( '', ( 0.000000000000000, 0.000000000000000, -10.0000000000000 ) );
#244 = DIRECTION( '', ( -0.000000000000000, -0.000000000000000, -1.00000000000000 ) );
#245 = DIRECTION( '', ( 1.00000000000000, 0.000000000000000, 0.000000000000000 ) );
#246 = ORIENTED_EDGE( '', *, *, #293, .F. );
#247 = ORIENTED_EDGE( '', *, *, #294, .F. );
#248 = CARTESIAN_POINT( '', ( 0.000000000000000, 0.000000000000000, 22.4500000000000 ) );
#249 = DIRECTION( '', ( -0.000000000000000, 0.000000000000000, -1.00000000000000 ) );
#250 = DIRECTION( '', ( -1.00000000000000, 0.000000000000000, 0.000000000000000 ) );
#251 = ORIENTED_EDGE( '', *, *, #273, .F. );
#252 = ORIENTED_EDGE( '', *, *, #285, .F. );
#253 = ORIENTED_EDGE( '', *, *, #287, .T. );
#254 = ORIENTED_EDGE( '', *, *, #295, .T. );
#255 = CARTESIAN_POINT( '', ( -4.00000000000000, 2.30940107675850, -5.00000000000000 ) );
#256 = DIRECTION( '', ( 1.00000000000000, 0.000000000000000, 0.000000000000000 ) );
#257 = DIRECTION( '', ( 0.000000000000000, 0.000000000000000, -1.00000000000000 ) );
#258 = ORIENTED_EDGE( '', *, *, #276, .F. );
#259 = ORIENTED_EDGE( '', *, *, #297, .F. );
#260 = ORIENTED_EDGE( '', *, *, #288, .T. );
#261 = ORIENTED_EDGE( '', *, *, #281, .T. );
#262 = CARTESIAN_POINT( '', ( 4.00000000000000, -2.30940107675850, -5.00000000000000 ) );
#263 = DIRECTION( '', ( -1.00000000000000, 0.000000000000000, 0.000000000000000 ) );
#264 = DIRECTION( '', ( 0.000000000000000, 0.000000000000000, 1.00000000000000 ) );
#265 = ORIENTED_EDGE( '', *, *, #275, .F. );
#266 = ORIENTED_EDGE( '', *, *, #296, .F. );
#267 = ORIENTED_EDGE( '', *, *, #289, .T. );
#268 = ORIENTED_EDGE( '', *, *, #297, .T. );
#269 = CARTESIAN_POINT( '', ( 2.23438397413388E-015, -4.61880215351700, -5.00000000000000 ) );
#270 = DIRECTION( '', ( -0.500000000000000, 0.866025403784438, 0.000000000000000 ) );
#271 = DIRECTION( '', ( -0.866025403784438, -0.500000000000000, 0.000000000000000 ) );
#272 = EDGE_CURVE( '', #298, #298, #299, .T. );
#273 = EDGE_CURVE( '', #300, #301, #302, .T. );
#274 = EDGE_CURVE( '', #301, #303, #304, .T. );
#275 = EDGE_CURVE( '', #303, #305, #306, .T. );
#276 = EDGE_CURVE( '', #305, #307, #308, .T. );
#277 = EDGE_CURVE( '', #307, #309, #310, .T. );
#278 = EDGE_CURVE( '', #309, #300, #311, .T. );
#279 = EDGE_CURVE( '', #312, #312, #313, .F. );
#280 = EDGE_CURVE( '', #314, #314, #315, .T. );
#281 = EDGE_CURVE( '', #316, #307, #317, .T. );
#282 = EDGE_CURVE( '', #316, #318, #319, .T. );
#283 = EDGE_CURVE( '', #318, #309, #320, .T. );
#284 = EDGE_CURVE( '', #318, #321, #322, .T. );
#285 = EDGE_CURVE( '', #321, #300, #323, .T. );
#286 = EDGE_CURVE( '', #324, #325, #326, .T. );
#287 = EDGE_CURVE( '', #321, #324, #327, .T. );
#288 = EDGE_CURVE( '', #328, #316, #329, .T. );
#289 = EDGE_CURVE( '', #325, #328, #330, .T. );
#290 = EDGE_CURVE( '', #331, #331, #332, .T. );
#291 = EDGE_CURVE( '', #333, #333, #334, .T. );
#292 = EDGE_CURVE( '', #335, #335, #336, .F. );
#293 = EDGE_CURVE( '', #337, #337, #338, .F. );
#294 = EDGE_CURVE( '', #339, #339, #340, .T. );
#295 = EDGE_CURVE( '', #324, #301, #341, .T. );
#296 = EDGE_CURVE( '', #325, #303, #342, .T. );
#297 = EDGE_CURVE( '', #328, #305, #343, .T. );
#298 = VERTEX_POINT( '', #344 );
#299 = CIRCLE( '', #345, 7.40000000000000 );
#300 = VERTEX_POINT( '', #346 );
#301 = VERTEX_POINT( '', #347 );
#302 = LINE( '', #348, #349 );
#303 = VERTEX_POINT( '', #350 );
#304 = LINE( '', #351, #352 );
#305 = VERTEX_POINT( '', #353 );
#306 = LINE( '', #354, #355 );
#307 = VERTEX_POINT( '', #356 );
#308 = LINE( '', #357, #358 );
#309 = VERTEX_POINT( '', #359 );
#310 = LINE( '', #360, #361 );
#311 = LINE( '', #362, #363 );
#312 = VERTEX_POINT( '', #364 );
#313 = CIRCLE( '', #365, 5.00000000000000 );
#314 = VERTEX_POINT( '', #366 );
#315 = CIRCLE( '', #367, 5.40000000000000 );
#316 = VERTEX_POINT( '', #368 );
#317 = LINE( '', #369, #370 );
#318 = VERTEX_POINT( '', #371 );
#319 = LINE( '', #372, #373 );
#320 = LINE( '', #374, #375 );
#321 = VERTEX_POINT( '', #376 );
#322 = LINE( '', #377, #378 );
#323 = LINE( '', #379, #380 );
#324 = VERTEX_POINT( '', #381 );
#325 = VERTEX_POINT( '', #382 );
#326 = LINE( '', #383, #384 );
#327 = LINE( '', #385, #386 );
#328 = VERTEX_POINT( '', #387 );
#329 = LINE( '', #388, #389 );
#330 = LINE( '', #390, #391 );
#331 = VERTEX_POINT( '', #392 );
#332 = CIRCLE( '', #393, 8.00000000000000 );
#333 = VERTEX_POINT( '', #394 );
#334 = CIRCLE( '', #395, 3.35410196624968 );
#335 = VERTEX_POINT( '', #396 );
#336 = CIRCLE( '', #397, 8.00000000000000 );
#337 = VERTEX_POINT( '', #398 );
#338 = CIRCLE( '', #399, 5.00000000000000 );
#339 = VERTEX_POINT( '', #400 );
#340 = CIRCLE( '', #401, 3.84961807767708 );
#341 = LINE( '', #402, #403 );
#342 = LINE( '', #404, #405 );
#343 = LINE( '', #406, #407 );
#344 = CARTESIAN_POINT( '', ( -7.40000000000000, 0.000000000000000, -10.0000000000000 ) );
#345 = AXIS2_PLACEMENT_3D( '', #408, #409, #410 );
#346 = CARTESIAN_POINT( '', ( -4.00000000000000, 2.30940107675850, -10.0000000000000 ) );
#347 = CARTESIAN_POINT( '', ( -4.00000000000000, -2.30940107675850, -10.0000000000000 ) );
#348 = CARTESIAN_POINT( '', ( -4.00000000000000, 2.30940107675850, -10.0000000000000 ) );
#349 = VECTOR( '', #411, 1000.00000000000 );
#350 = CARTESIAN_POINT( '', ( 2.23438397413388E-015, -4.61880215351700, -10.0000000000000 ) );
#351 = CARTESIAN_POINT( '', ( -4.00000000000000, -2.30940107675850, -10.0000000000000 ) );
#352 = VECTOR( '', #412, 1000.00000000000 );
#353 = CARTESIAN_POINT( '', ( 4.00000000000000, -2.30940107675850, -10.0000000000000 ) );
#354 = CARTESIAN_POINT( '', ( 2.23438397413388E-015, -4.61880215351700, -10.0000000000000 ) );
#355 = VECTOR( '', #413, 999.999999999999 );
#356 = CARTESIAN_POINT( '', ( 4.00000000000000, 2.30940107675850, -10.0000000000000 ) );
#357 = CARTESIAN_POINT( '', ( 4.00000000000000, -2.30940107675850, -10.0000000000000 ) );
#358 = VECTOR( '', #414, 1000.00000000000 );
#359 = CARTESIAN_POINT( '', ( 1.73472347597680E-015, 4.61880215351700, -10.0000000000000 ) );
#360 = CARTESIAN_POINT( '', ( 4.00000000000000, 2.30940107675850, -10.0000000000000 ) );
#361 = VECTOR( '', #415, 999.999999999999 );
#362 = CARTESIAN_POINT( '', ( 9.75781955236954E-016, 4.61880215351700, -10.0000000000000 ) );
#363 = VECTOR( '', #416, 1000.00000000000 );
#364 = CARTESIAN_POINT( '', ( -5.00000000000000, 0.000000000000000, 0.400000000000000 ) );
#365 = AXIS2_PLACEMENT_3D( '', #417, #418, #419 );
#366 = CARTESIAN_POINT( '', ( -5.40000000000000, 0.000000000000000, 0.000000000000000 ) );
#367 = AXIS2_PLACEMENT_3D( '', #420, #421, #422 );
#368 = CARTESIAN_POINT( '', ( 4.00000000000000, 2.30940107675850, -5.00000000000000 ) );
#369 = CARTESIAN_POINT( '', ( 4.00000000000000, 2.30940107675850, -5.00000000000000 ) );
#370 = VECTOR( '', #423, 1000.00000000000 );
#371 = CARTESIAN_POINT( '', ( 1.73472347597680E-015, 4.61880215351700, -5.00000000000000 ) );
#372 = CARTESIAN_POINT( '', ( 4.00000000000000, 2.30940107675850, -5.00000000000000 ) );
#373 = VECTOR( '', #424, 999.999999999999 );
#374 = CARTESIAN_POINT( '', ( 1.73472347597680E-015, 4.61880215351700, -5.00000000000000 ) );
#375 = VECTOR( '', #425, 1000.00000000000 );
#376 = CARTESIAN_POINT( '', ( -4.00000000000000, 2.30940107675850, -5.00000000000000 ) );
#377 = CARTESIAN_POINT( '', ( 9.75781955236954E-016, 4.61880215351700, -5.00000000000000 ) );
#378 = VECTOR( '', #426, 1000.00000000000 );
#379 = CARTESIAN_POINT( '', ( -4.00000000000000, 2.30940107675850, -5.00000000000000 ) );
#380 = VECTOR( '', #427, 1000.00000000000 );
#381 = CARTESIAN_POINT( '', ( -4.00000000000000, -2.30940107675850, -5.00000000000000 ) );
#382 = CARTESIAN_POINT( '', ( 2.23438397413388E-015, -4.61880215351700, -5.00000000000000 ) );
#383 = CARTESIAN_POINT( '', ( -4.00000000000000, -2.30940107675850, -5.00000000000000 ) );
#384 = VECTOR( '', #428, 1000.00000000000 );
#385 = CARTESIAN_POINT( '', ( -4.00000000000000, 2.30940107675850, -5.00000000000000 ) );
#386 = VECTOR( '', #429, 1000.00000000000 );
#387 = CARTESIAN_POINT( '', ( 4.00000000000000, -2.30940107675850, -5.00000000000000 ) );
#388 = CARTESIAN_POINT( '', ( 4.00000000000000, -2.30940107675850, -5.00000000000000 ) );
#389 = VECTOR( '', #430, 1000.00000000000 );
#390 = CARTESIAN_POINT( '', ( 2.23438397413388E-015, -4.61880215351700, -5.00000000000000 ) );
#391 = VECTOR( '', #431, 999.999999999999 );
#392 = CARTESIAN_POINT( '', ( 8.00000000000000, 0.000000000000000, 0.000000000000000 ) );
#393 = AXIS2_PLACEMENT_3D( '', #432, #433, #434 );
#394 = CARTESIAN_POINT( '', ( 3.35410196624968, 0.000000000000000, 22.4500000000000 ) );
#395 = AXIS2_PLACEMENT_3D( '', #435, #436, #437 );
#396 = CARTESIAN_POINT( '', ( -8.00000000000000, 0.000000000000000, -9.40000000000000 ) );
#397 = AXIS2_PLACEMENT_3D( '', #438, #439, #440 );
#398 = CARTESIAN_POINT( '', ( 5.00000000000000, 0.000000000000000, 17.9500000000000 ) );
#399 = AXIS2_PLACEMENT_3D( '', #441, #442, #443 );
#400 = CARTESIAN_POINT( '', ( 3.84961807767708, 0.000000000000000, 22.4500000000000 ) );
#401 = AXIS2_PLACEMENT_3D( '', #444, #445, #446 );
#402 = CARTESIAN_POINT( '', ( -4.00000000000000, -2.30940107675850, -5.00000000000000 ) );
#403 = VECTOR( '', #447, 1000.00000000000 );
#404 = CARTESIAN_POINT( '', ( 2.23438397413388E-015, -4.61880215351700, -5.00000000000000 ) );
#405 = VECTOR( '', #448, 1000.00000000000 );
#406 = CARTESIAN_POINT( '', ( 4.00000000000000, -2.30940107675850, -5.00000000000000 ) );
#407 = VECTOR( '', #449, 1000.00000000000 );
#408 = CARTESIAN_POINT( '', ( 0.000000000000000, 0.000000000000000, -10.0000000000000 ) );
#409 = DIRECTION( '', ( 0.000000000000000, 0.000000000000000, -1.00000000000000 ) );
#410 = DIRECTION( '', ( -1.00000000000000, 0.000000000000000, 0.000000000000000 ) );
#411 = DIRECTION( '', ( 0.000000000000000, -1.00000000000000, 0.000000000000000 ) );
#412 = DIRECTION( '', ( 0.866025403784439, -0.500000000000000, 0.000000000000000 ) );
#413 = DIRECTION( '', ( 0.866025403784438, 0.500000000000000, 0.000000000000000 ) );
#414 = DIRECTION( '', ( 0.000000000000000, 1.00000000000000, 0.000000000000000 ) );
#415 = DIRECTION( '', ( -0.866025403784438, 0.500000000000000, 0.000000000000000 ) );
#416 = DIRECTION( '', ( -0.866025403784439, -0.500000000000000, 0.000000000000000 ) );
#417 = CARTESIAN_POINT( '', ( 0.000000000000000, 0.000000000000000, 0.400000000000000 ) );
#418 = DIRECTION( '', ( 0.000000000000000, 0.000000000000000, -1.00000000000000 ) );
#419 = DIRECTION( '', ( -1.00000000000000, 0.000000000000000, 0.000000000000000 ) );
#420 = CARTESIAN_POINT( '', ( 0.000000000000000, 0.000000000000000, 0.000000000000000 ) );
#421 = DIRECTION( '', ( 0.000000000000000, 0.000000000000000, -1.00000000000000 ) );
#422 = DIRECTION( '', ( -1.00000000000000, 0.000000000000000, 0.000000000000000 ) );
#423 = DIRECTION( '', ( 0.000000000000000, 0.000000000000000, -1.00000000000000 ) );
#424 = DIRECTION( '', ( -0.866025403784438, 0.500000000000000, 0.000000000000000 ) );
#425 = DIRECTION( '', ( 0.000000000000000, 0.000000000000000, -1.00000000000000 ) );
#426 = DIRECTION( '', ( -0.866025403784439, -0.500000000000000, 0.000000000000000 ) );
#427 = DIRECTION( '', ( 0.000000000000000, 0.000000000000000, -1.00000000000000 ) );
#428 = DIRECTION( '', ( 0.866025403784439, -0.500000000000000, 0.000000000000000 ) );
#429 = DIRECTION( '', ( 0.000000000000000, -1.00000000000000, 0.000000000000000 ) );
#430 = DIRECTION( '', ( 0.000000000000000, 1.00000000000000, 0.000000000000000 ) );
#431 = DIRECTION( '', ( 0.866025403784438, 0.500000000000000, 0.000000000000000 ) );
#432 = CARTESIAN_POINT( '', ( 0.000000000000000, 0.000000000000000, 0.000000000000000 ) );
#433 = DIRECTION( '', ( 0.000000000000000, 0.000000000000000, -1.00000000000000 ) );
#434 = DIRECTION( '', ( 1.00000000000000, 0.000000000000000, 0.000000000000000 ) );
#435 = CARTESIAN_POINT( '', ( 0.000000000000000, 0.000000000000000, 22.4500000000000 ) );
#436 = DIRECTION( '', ( 0.000000000000000, 0.000000000000000, 1.00000000000000 ) );
#437 = DIRECTION( '', ( 1.00000000000000, 0.000000000000000, 0.000000000000000 ) );
#438 = CARTESIAN_POINT( '', ( 0.000000000000000, 0.000000000000000, -9.40000000000000 ) );
#439 = DIRECTION( '', ( 0.000000000000000, 0.000000000000000, -1.00000000000000 ) );
#440 = DIRECTION( '', ( -1.00000000000000, 0.000000000000000, 0.000000000000000 ) );
#441 = CARTESIAN_POINT( '', ( 0.000000000000000, 0.000000000000000, 17.9500000000000 ) );
#442 = DIRECTION( '', ( 0.000000000000000, 0.000000000000000, 1.00000000000000 ) );
#443 = DIRECTION( '', ( 1.00000000000000, 0.000000000000000, 0.000000000000000 ) );
#444 = CARTESIAN_POINT( '', ( 0.000000000000000, 0.000000000000000, 22.4500000000000 ) );
#445 = DIRECTION( '', ( 0.000000000000000, 0.000000000000000, 1.00000000000000 ) );
#446 = DIRECTION( '', ( 1.00000000000000, 0.000000000000000, 0.000000000000000 ) );
#447 = DIRECTION( '', ( 0.000000000000000, 0.000000000000000, -1.00000000000000 ) );
#448 = DIRECTION( '', ( 0.000000000000000, 0.000000000000000, -1.00000000000000 ) );
#449 = DIRECTION( '', ( 0.000000000000000, 0.000000000000000, -1.00000000000000 ) );
ENDSEC;
END-ISO-10303-21;
