ISO-10303-21;
HEADER;
FILE_DESCRIPTION( ( 'Unknown' ), '1' );
FILE_NAME( 's:/LEAVE 2D&3D CAD/LEAVE 3D-PAR/Metric/PT/PT17-3D/PT17B-1230.stp', 'Unknown', ( 'Unknown' ), ( 'Unknown' ), 'XStep 1.0', 'Unknown', '  ' );
FILE_SCHEMA( ( 'CONFIG_CONTROL_DESIGN' ) );
ENDSEC;
DATA;
#1 = DESIGN_CONTEXT( '', #27, 'design' );
#2 = APPLICATION_PROTOCOL_DEFINITION( 'INTERNATIONAL STANDARD', 'config_control_design', 1994, #27 );
#3 = PRODUCT_CATEGORY_RELATIONSHIP( 'NONE', 'NONE', #28, #29 );
#4 = DATE_AND_TIME( #30, #31 );
#5 = DATE_TIME_ROLE( 'creation_date' );
#6 = DATE_TIME_ROLE( 'classification_date' );
#7 = PERSON_AND_ORGANIZATION_ROLE( 'creator' );
#8 = PERSON_AND_ORGANIZATION_ROLE( 'design_supplier' );
#9 = PERSON_AND_ORGANIZATION_ROLE( 'classification_officer' );
#10 = PERSON_AND_ORGANIZATION_ROLE( 'design_owner' );
#11 = APPROVAL_PERSON_ORGANIZATION( #32, #33, #34 );
#12 = APPROVAL_DATE_TIME( #4, #33 );
#13 = CC_DESIGN_APPROVAL( #33, ( #35, #36, #37 ) );
#14 = CC_DESIGN_DATE_AND_TIME_ASSIGNMENT( #4, #5, ( #37 ) );
#15 = CC_DESIGN_DATE_AND_TIME_ASSIGNMENT( #4, #6, ( #35 ) );
#16 = CC_DESIGN_PERSON_AND_ORGANIZATION_ASSIGNMENT( #32, #10, ( #38 ) );
#17 = CC_DESIGN_PERSON_AND_ORGANIZATION_ASSIGNMENT( #32, #7, ( #37 ) );
#18 = CC_DESIGN_PERSON_AND_ORGANIZATION_ASSIGNMENT( #32, #7, ( #36 ) );
#19 = CC_DESIGN_PERSON_AND_ORGANIZATION_ASSIGNMENT( #32, #8, ( #36 ) );
#20 = CC_DESIGN_SECURITY_CLASSIFICATION( #35, ( #36 ) );
#21 = CC_DESIGN_PERSON_AND_ORGANIZATION_ASSIGNMENT( #32, #9, ( #35 ) );
#22 = SHAPE_DEFINITION_REPRESENTATION( #39, #40 );
#23 =  ( GEOMETRIC_REPRESENTATION_CONTEXT( 3 )GLOBAL_UNCERTAINTY_ASSIGNED_CONTEXT( ( #43 ) )GLOBAL_UNIT_ASSIGNED_CONTEXT( ( #45, #46, #47 ) )REPRESENTATION_CONTEXT( 'NONE', 'WORKSPACE' ) );
#27 = APPLICATION_CONTEXT( 'CONFIGURATION CONTROLLED 3D DESIGNS OF MECHANICAL PARTS AND ASSEMBLIES' );
#28 = PRODUCT_CATEGORY( 'part', 'NONE' );
#29 = PRODUCT_RELATED_PRODUCT_CATEGORY( 'detail', ' ', ( #38 ) );
#30 = CALENDAR_DATE( 2010, 5, 0 );
#31 = LOCAL_TIME( 10, 18, 29.0000000000000, #49 );
#32 = PERSON_AND_ORGANIZATION( #50, #51 );
#33 = APPROVAL( #52, 'SOLID MODEL' );
#34 = APPROVAL_ROLE( 'APPROVED' );
#35 = SECURITY_CLASSIFICATION( '', '', #53 );
#36 = PRODUCT_DEFINITION_FORMATION_WITH_SPECIFIED_SOURCE( ' ', 'NONE', #38, .NOT_KNOWN. );
#37 = PRODUCT_DEFINITION( 'NONE', 'NONE', #36, #1 );
#38 = PRODUCT( '1', '1', 'PART-1-DESC', ( #54 ) );
#39 = PRODUCT_DEFINITION_SHAPE( 'NONE', 'NONE', #37 );
#40 = ADVANCED_BREP_SHAPE_REPRESENTATION( '1', ( #55, #56 ), #23 );
#43 = UNCERTAINTY_MEASURE_WITH_UNIT( LENGTH_MEASURE( 0.00100000000000000 ), #45, '', '' );
#45 =  ( CONVERSION_BASED_UNIT( 'MILLIMETRE', #59 )LENGTH_UNIT(  )NAMED_UNIT( #62 ) );
#46 =  ( NAMED_UNIT( #64 )PLANE_ANGLE_UNIT(  )SI_UNIT( $, .RADIAN. ) );
#47 =  ( NAMED_UNIT( #64 )SOLID_ANGLE_UNIT(  )SI_UNIT( $, .STERADIAN. ) );
#49 = COORDINATED_UNIVERSAL_TIME_OFFSET( 8, 0, .AHEAD. );
#50 = PERSON( '', 'UNSPECIFIED', $, $, $, $ );
#51 = ORGANIZATION( 'UNSPECIFIED', 'UNSPECIFIED', 'UNSPECIFIED' );
#52 = APPROVAL_STATUS( 'approved' );
#53 = SECURITY_CLASSIFICATION_LEVEL( 'unclassified' );
#54 = MECHANICAL_CONTEXT( '', #27, 'mechanical' );
#55 = MANIFOLD_SOLID_BREP( '1', #70 );
#56 = AXIS2_PLACEMENT_3D( '', #71, #72, #73 );
#59 = LENGTH_MEASURE_WITH_UNIT( LENGTH_MEASURE( 1.00000000000000 ), #74 );
#62 = DIMENSIONAL_EXPONENTS( 1.00000000000000, 0.000000000000000, 0.000000000000000, 0.000000000000000, 0.000000000000000, 0.000000000000000, 0.000000000000000 );
#64 = DIMENSIONAL_EXPONENTS( 0.000000000000000, 0.000000000000000, 0.000000000000000, 0.000000000000000, 0.000000000000000, 0.000000000000000, 0.000000000000000 );
#70 = CLOSED_SHELL( '', ( #75, #76, #77, #78, #79, #80, #81, #82, #83, #84, #85, #86, #87, #88, #89, #90 ) );
#71 = CARTESIAN_POINT( '', ( 0.000000000000000, 0.000000000000000, 0.000000000000000 ) );
#72 = DIRECTION( '', ( 0.000000000000000, 0.000000000000000, 1.00000000000000 ) );
#73 = DIRECTION( '', ( 1.00000000000000, 0.000000000000000, 0.000000000000000 ) );
#74 =  ( NAMED_UNIT( #62 )LENGTH_UNIT(  )SI_UNIT( .MILLI., .METRE. ) );
#75 = ADVANCED_FACE( '', ( #92, #93 ), #94, .T. );
#76 = ADVANCED_FACE( '', ( #95, #96 ), #97, .T. );
#77 = ADVANCED_FACE( '', ( #98 ), #99, .T. );
#78 = ADVANCED_FACE( '', ( #100 ), #101, .T. );
#79 = ADVANCED_FACE( '', ( #102 ), #103, .F. );
#80 = ADVANCED_FACE( '', ( #104, #105 ), #106, .T. );
#81 = ADVANCED_FACE( '', ( #107 ), #108, .T. );
#82 = ADVANCED_FACE( '', ( #109, #110 ), #111, .T. );
#83 = ADVANCED_FACE( '', ( #112, #113 ), #114, .T. );
#84 = ADVANCED_FACE( '', ( #115 ), #116, .T. );
#85 = ADVANCED_FACE( '', ( #117 ), #118, .T. );
#86 = ADVANCED_FACE( '', ( #119 ), #120, .T. );
#87 = ADVANCED_FACE( '', ( #121 ), #122, .T. );
#88 = ADVANCED_FACE( '', ( #123, #124 ), #125, .F. );
#89 = ADVANCED_FACE( '', ( #126, #127 ), #128, .T. );
#90 = ADVANCED_FACE( '', ( #129, #130 ), #131, .T. );
#92 = FACE_OUTER_BOUND( '', #132, .T. );
#93 = FACE_OUTER_BOUND( '', #133, .T. );
#94 = SPHERICAL_SURFACE( '', #134, 4.36550000000000 );
#95 = FACE_OUTER_BOUND( '', #135, .T. );
#96 = FACE_BOUND( '', #136, .T. );
#97 = CONICAL_SURFACE( '', #137, 8.30000000000000, 0.785398163397448 );
#98 = FACE_OUTER_BOUND( '', #138, .T. );
#99 = PLANE( '', #139 );
#100 = FACE_OUTER_BOUND( '', #140, .T. );
#101 = PLANE( '', #141 );
#102 = FACE_OUTER_BOUND( '', #142, .T. );
#103 = PLANE( '', #143 );
#104 = FACE_OUTER_BOUND( '', #144, .T. );
#105 = FACE_OUTER_BOUND( '', #145, .T. );
#106 = CYLINDRICAL_SURFACE( '', #146, 9.00000000000000 );
#107 = FACE_OUTER_BOUND( '', #147, .T. );
#108 = PLANE( '', #148 );
#109 = FACE_OUTER_BOUND( '', #149, .T. );
#110 = FACE_BOUND( '', #150, .T. );
#111 = PLANE( '', #151 );
#112 = FACE_OUTER_BOUND( '', #152, .T. );
#113 = FACE_OUTER_BOUND( '', #153, .T. );
#114 = CYLINDRICAL_SURFACE( '', #154, 6.00000000000000 );
#115 = FACE_OUTER_BOUND( '', #155, .T. );
#116 = PLANE( '', #156 );
#117 = FACE_OUTER_BOUND( '', #157, .T. );
#118 = PLANE( '', #158 );
#119 = FACE_OUTER_BOUND( '', #159, .T. );
#120 = PLANE( '', #160 );
#121 = FACE_OUTER_BOUND( '', #161, .T. );
#122 = PLANE( '', #162 );
#123 = FACE_OUTER_BOUND( '', #163, .T. );
#124 = FACE_BOUND( '', #164, .T. );
#125 = PLANE( '', #165 );
#126 = FACE_OUTER_BOUND( '', #166, .T. );
#127 = FACE_BOUND( '', #167, .T. );
#128 = CONICAL_SURFACE( '', #168, 4.70039279742371, 0.254294472015574 );
#129 = FACE_BOUND( '', #169, .T. );
#130 = FACE_OUTER_BOUND( '', #170, .T. );
#131 = PLANE( '', #171 );
#132 = EDGE_LOOP( '', ( #172 ) );
#133 = EDGE_LOOP( '', ( #173 ) );
#134 = AXIS2_PLACEMENT_3D( '', #174, #175, #176 );
#135 = EDGE_LOOP( '', ( #177 ) );
#136 = EDGE_LOOP( '', ( #178 ) );
#137 = AXIS2_PLACEMENT_3D( '', #179, #180, #181 );
#138 = EDGE_LOOP( '', ( #182, #183, #184, #185 ) );
#139 = AXIS2_PLACEMENT_3D( '', #186, #187, #188 );
#140 = EDGE_LOOP( '', ( #189, #190, #191, #192 ) );
#141 = AXIS2_PLACEMENT_3D( '', #193, #194, #195 );
#142 = EDGE_LOOP( '', ( #196, #197, #198, #199, #200, #201 ) );
#143 = AXIS2_PLACEMENT_3D( '', #202, #203, #204 );
#144 = EDGE_LOOP( '', ( #205 ) );
#145 = EDGE_LOOP( '', ( #206 ) );
#146 = AXIS2_PLACEMENT_3D( '', #207, #208, #209 );
#147 = EDGE_LOOP( '', ( #210 ) );
#148 = AXIS2_PLACEMENT_3D( '', #211, #212, #213 );
#149 = EDGE_LOOP( '', ( #214 ) );
#150 = EDGE_LOOP( '', ( #215, #216, #217, #218, #219, #220 ) );
#151 = AXIS2_PLACEMENT_3D( '', #221, #222, #223 );
#152 = EDGE_LOOP( '', ( #224 ) );
#153 = EDGE_LOOP( '', ( #225 ) );
#154 = AXIS2_PLACEMENT_3D( '', #226, #227, #228 );
#155 = EDGE_LOOP( '', ( #229, #230, #231, #232 ) );
#156 = AXIS2_PLACEMENT_3D( '', #233, #234, #235 );
#157 = EDGE_LOOP( '', ( #236, #237, #238, #239 ) );
#158 = AXIS2_PLACEMENT_3D( '', #240, #241, #242 );
#159 = EDGE_LOOP( '', ( #243, #244, #245, #246 ) );
#160 = AXIS2_PLACEMENT_3D( '', #247, #248, #249 );
#161 = EDGE_LOOP( '', ( #250, #251, #252, #253 ) );
#162 = AXIS2_PLACEMENT_3D( '', #254, #255, #256 );
#163 = EDGE_LOOP( '', ( #257 ) );
#164 = EDGE_LOOP( '', ( #258 ) );
#165 = AXIS2_PLACEMENT_3D( '', #259, #260, #261 );
#166 = EDGE_LOOP( '', ( #262 ) );
#167 = EDGE_LOOP( '', ( #263 ) );
#168 = AXIS2_PLACEMENT_3D( '', #264, #265, #266 );
#169 = EDGE_LOOP( '', ( #267 ) );
#170 = EDGE_LOOP( '', ( #268 ) );
#171 = AXIS2_PLACEMENT_3D( '', #269, #270, #271 );
#172 = ORIENTED_EDGE( '', *, *, #272, .T. );
#173 = ORIENTED_EDGE( '', *, *, #273, .T. );
#174 = CARTESIAN_POINT( '', ( 0.000000000000000, 0.000000000000000, 26.8800000000000 ) );
#175 = DIRECTION( '', ( 0.000000000000000, 0.000000000000000, 1.00000000000000 ) );
#176 = DIRECTION( '', ( -6.12303176911189E-017, -1.00000000000000, 0.000000000000000 ) );
#177 = ORIENTED_EDGE( '', *, *, #274, .F. );
#178 = ORIENTED_EDGE( '', *, *, #275, .F. );
#179 = CARTESIAN_POINT( '', ( 0.000000000000000, 0.000000000000000, -12.0000000000000 ) );
#180 = DIRECTION( '', ( -0.000000000000000, -0.000000000000000, 1.00000000000000 ) );
#181 = DIRECTION( '', ( 1.00000000000000, 0.000000000000000, 0.000000000000000 ) );
#182 = ORIENTED_EDGE( '', *, *, #276, .F. );
#183 = ORIENTED_EDGE( '', *, *, #277, .F. );
#184 = ORIENTED_EDGE( '', *, *, #278, .T. );
#185 = ORIENTED_EDGE( '', *, *, #279, .T. );
#186 = CARTESIAN_POINT( '', ( 5.00000000000000, 2.88675134594812, -6.00000000000000 ) );
#187 = DIRECTION( '', ( -0.500000000000000, -0.866025403784438, 0.000000000000000 ) );
#188 = DIRECTION( '', ( 0.866025403784438, -0.500000000000000, 0.000000000000000 ) );
#189 = ORIENTED_EDGE( '', *, *, #280, .F. );
#190 = ORIENTED_EDGE( '', *, *, #279, .F. );
#191 = ORIENTED_EDGE( '', *, *, #281, .T. );
#192 = ORIENTED_EDGE( '', *, *, #282, .T. );
#193 = CARTESIAN_POINT( '', ( 1.30104260698260E-015, 5.77350269189626, -6.00000000000000 ) );
#194 = DIRECTION( '', ( 0.500000000000000, -0.866025403784439, 0.000000000000000 ) );
#195 = DIRECTION( '', ( 0.866025403784439, 0.500000000000000, 0.000000000000000 ) );
#196 = ORIENTED_EDGE( '', *, *, #283, .F. );
#197 = ORIENTED_EDGE( '', *, *, #284, .F. );
#198 = ORIENTED_EDGE( '', *, *, #281, .F. );
#199 = ORIENTED_EDGE( '', *, *, #278, .F. );
#200 = ORIENTED_EDGE( '', *, *, #285, .F. );
#201 = ORIENTED_EDGE( '', *, *, #286, .F. );
#202 = CARTESIAN_POINT( '', ( 5.00000000000000, -8.66025403784437, -6.00000000000000 ) );
#203 = DIRECTION( '', ( 0.000000000000000, 0.000000000000000, 1.00000000000000 ) );
#204 = DIRECTION( '', ( 1.00000000000000, 0.000000000000000, 0.000000000000000 ) );
#205 = ORIENTED_EDGE( '', *, *, #274, .T. );
#206 = ORIENTED_EDGE( '', *, *, #287, .T. );
#207 = CARTESIAN_POINT( '', ( 0.000000000000000, 0.000000000000000, -12.0000000000000 ) );
#208 = DIRECTION( '', ( -0.000000000000000, -0.000000000000000, -1.00000000000000 ) );
#209 = DIRECTION( '', ( 1.00000000000000, 0.000000000000000, 0.000000000000000 ) );
#210 = ORIENTED_EDGE( '', *, *, #273, .F. );
#211 = CARTESIAN_POINT( '', ( 4.70039279742371, -6.00000000000000, 30.0000000000000 ) );
#212 = DIRECTION( '', ( 0.000000000000000, 0.000000000000000, 1.00000000000000 ) );
#213 = DIRECTION( '', ( 1.00000000000000, 0.000000000000000, 0.000000000000000 ) );
#214 = ORIENTED_EDGE( '', *, *, #275, .T. );
#215 = ORIENTED_EDGE( '', *, *, #288, .T. );
#216 = ORIENTED_EDGE( '', *, *, #289, .T. );
#217 = ORIENTED_EDGE( '', *, *, #290, .T. );
#218 = ORIENTED_EDGE( '', *, *, #291, .T. );
#219 = ORIENTED_EDGE( '', *, *, #276, .T. );
#220 = ORIENTED_EDGE( '', *, *, #280, .T. );
#221 = CARTESIAN_POINT( '', ( 0.000000000000000, 0.000000000000000, -12.0000000000000 ) );
#222 = DIRECTION( '', ( 0.000000000000000, 0.000000000000000, -1.00000000000000 ) );
#223 = DIRECTION( '', ( -1.00000000000000, 0.000000000000000, 0.000000000000000 ) );
#224 = ORIENTED_EDGE( '', *, *, #292, .T. );
#225 = ORIENTED_EDGE( '', *, *, #293, .F. );
#226 = CARTESIAN_POINT( '', ( 0.000000000000000, 0.000000000000000, 28.6800000000000 ) );
#227 = DIRECTION( '', ( -0.000000000000000, -0.000000000000000, 1.00000000000000 ) );
#228 = DIRECTION( '', ( -1.00000000000000, 0.000000000000000, 0.000000000000000 ) );
#229 = ORIENTED_EDGE( '', *, *, #288, .F. );
#230 = ORIENTED_EDGE( '', *, *, #282, .F. );
#231 = ORIENTED_EDGE( '', *, *, #284, .T. );
#232 = ORIENTED_EDGE( '', *, *, #294, .T. );
#233 = CARTESIAN_POINT( '', ( -5.00000000000000, 2.88675134594812, -6.00000000000000 ) );
#234 = DIRECTION( '', ( 1.00000000000000, 0.000000000000000, 0.000000000000000 ) );
#235 = DIRECTION( '', ( 0.000000000000000, 0.000000000000000, -1.00000000000000 ) );
#236 = ORIENTED_EDGE( '', *, *, #289, .F. );
#237 = ORIENTED_EDGE( '', *, *, #294, .F. );
#238 = ORIENTED_EDGE( '', *, *, #283, .T. );
#239 = ORIENTED_EDGE( '', *, *, #295, .T. );
#240 = CARTESIAN_POINT( '', ( -5.00000000000000, -2.88675134594812, -6.00000000000000 ) );
#241 = DIRECTION( '', ( 0.500000000000000, 0.866025403784439, 0.000000000000000 ) );
#242 = DIRECTION( '', ( -0.866025403784439, 0.500000000000000, 0.000000000000000 ) );
#243 = ORIENTED_EDGE( '', *, *, #290, .F. );
#244 = ORIENTED_EDGE( '', *, *, #295, .F. );
#245 = ORIENTED_EDGE( '', *, *, #286, .T. );
#246 = ORIENTED_EDGE( '', *, *, #296, .T. );
#247 = CARTESIAN_POINT( '', ( 1.83526804863850E-015, -5.77350269189626, -6.00000000000000 ) );
#248 = DIRECTION( '', ( -0.500000000000000, 0.866025403784438, 0.000000000000000 ) );
#249 = DIRECTION( '', ( -0.866025403784438, -0.500000000000000, 0.000000000000000 ) );
#250 = ORIENTED_EDGE( '', *, *, #291, .F. );
#251 = ORIENTED_EDGE( '', *, *, #296, .F. );
#252 = ORIENTED_EDGE( '', *, *, #285, .T. );
#253 = ORIENTED_EDGE( '', *, *, #277, .T. );
#254 = CARTESIAN_POINT( '', ( 5.00000000000000, -2.88675134594812, -6.00000000000000 ) );
#255 = DIRECTION( '', ( -1.00000000000000, 0.000000000000000, 0.000000000000000 ) );
#256 = DIRECTION( '', ( 0.000000000000000, 0.000000000000000, 1.00000000000000 ) );
#257 = ORIENTED_EDGE( '', *, *, #287, .F. );
#258 = ORIENTED_EDGE( '', *, *, #293, .T. );
#259 = CARTESIAN_POINT( '', ( 0.000000000000000, 0.000000000000000, 0.000000000000000 ) );
#260 = DIRECTION( '', ( 0.000000000000000, 0.000000000000000, -1.00000000000000 ) );
#261 = DIRECTION( '', ( -1.00000000000000, 0.000000000000000, 0.000000000000000 ) );
#262 = ORIENTED_EDGE( '', *, *, #292, .F. );
#263 = ORIENTED_EDGE( '', *, *, #297, .F. );
#264 = CARTESIAN_POINT( '', ( 0.000000000000000, 0.000000000000000, 28.6800000000000 ) );
#265 = DIRECTION( '', ( -0.000000000000000, 0.000000000000000, -1.00000000000000 ) );
#266 = DIRECTION( '', ( -1.00000000000000, 0.000000000000000, 0.000000000000000 ) );
#267 = ORIENTED_EDGE( '', *, *, #272, .F. );
#268 = ORIENTED_EDGE( '', *, *, #297, .T. );
#269 = CARTESIAN_POINT( '', ( 0.000000000000000, 0.000000000000000, 28.6800000000000 ) );
#270 = DIRECTION( '', ( 0.000000000000000, 0.000000000000000, 1.00000000000000 ) );
#271 = DIRECTION( '', ( 1.00000000000000, 0.000000000000000, 0.000000000000000 ) );
#272 = EDGE_CURVE( '', #298, #298, #299, .T. );
#273 = EDGE_CURVE( '', #300, #300, #301, .F. );
#274 = EDGE_CURVE( '', #302, #302, #303, .F. );
#275 = EDGE_CURVE( '', #304, #304, #305, .T. );
#276 = EDGE_CURVE( '', #306, #307, #308, .T. );
#277 = EDGE_CURVE( '', #309, #306, #310, .T. );
#278 = EDGE_CURVE( '', #309, #311, #312, .T. );
#279 = EDGE_CURVE( '', #311, #307, #313, .T. );
#280 = EDGE_CURVE( '', #307, #314, #315, .T. );
#281 = EDGE_CURVE( '', #311, #316, #317, .T. );
#282 = EDGE_CURVE( '', #316, #314, #318, .T. );
#283 = EDGE_CURVE( '', #319, #320, #321, .T. );
#284 = EDGE_CURVE( '', #316, #319, #322, .T. );
#285 = EDGE_CURVE( '', #323, #309, #324, .T. );
#286 = EDGE_CURVE( '', #320, #323, #325, .T. );
#287 = EDGE_CURVE( '', #326, #326, #327, .T. );
#288 = EDGE_CURVE( '', #314, #328, #329, .T. );
#289 = EDGE_CURVE( '', #328, #330, #331, .T. );
#290 = EDGE_CURVE( '', #330, #332, #333, .T. );
#291 = EDGE_CURVE( '', #332, #306, #334, .T. );
#292 = EDGE_CURVE( '', #335, #335, #336, .F. );
#293 = EDGE_CURVE( '', #337, #337, #338, .T. );
#294 = EDGE_CURVE( '', #319, #328, #339, .T. );
#295 = EDGE_CURVE( '', #320, #330, #340, .T. );
#296 = EDGE_CURVE( '', #323, #332, #341, .T. );
#297 = EDGE_CURVE( '', #342, #342, #343, .T. );
#298 = VERTEX_POINT( '', #344 );
#299 = CIRCLE( '', #345, 3.97713342119672 );
#300 = VERTEX_POINT( '', #346 );
#301 = CIRCLE( '', #347, 3.05338996035554 );
#302 = VERTEX_POINT( '', #348 );
#303 = CIRCLE( '', #349, 9.00000000000000 );
#304 = VERTEX_POINT( '', #350 );
#305 = CIRCLE( '', #351, 8.30000000000000 );
#306 = VERTEX_POINT( '', #352 );
#307 = VERTEX_POINT( '', #353 );
#308 = LINE( '', #354, #355 );
#309 = VERTEX_POINT( '', #356 );
#310 = LINE( '', #357, #358 );
#311 = VERTEX_POINT( '', #359 );
#312 = LINE( '', #360, #361 );
#313 = LINE( '', #362, #363 );
#314 = VERTEX_POINT( '', #364 );
#315 = LINE( '', #365, #366 );
#316 = VERTEX_POINT( '', #367 );
#317 = LINE( '', #368, #369 );
#318 = LINE( '', #370, #371 );
#319 = VERTEX_POINT( '', #372 );
#320 = VERTEX_POINT( '', #373 );
#321 = LINE( '', #374, #375 );
#322 = LINE( '', #376, #377 );
#323 = VERTEX_POINT( '', #378 );
#324 = LINE( '', #379, #380 );
#325 = LINE( '', #381, #382 );
#326 = VERTEX_POINT( '', #383 );
#327 = CIRCLE( '', #384, 9.00000000000000 );
#328 = VERTEX_POINT( '', #385 );
#329 = LINE( '', #386, #387 );
#330 = VERTEX_POINT( '', #388 );
#331 = LINE( '', #389, #390 );
#332 = VERTEX_POINT( '', #391 );
#333 = LINE( '', #392, #393 );
#334 = LINE( '', #394, #395 );
#335 = VERTEX_POINT( '', #396 );
#336 = CIRCLE( '', #397, 6.00000000000000 );
#337 = VERTEX_POINT( '', #398 );
#338 = CIRCLE( '', #399, 6.00000000000000 );
#339 = LINE( '', #400, #401 );
#340 = LINE( '', #402, #403 );
#341 = LINE( '', #404, #405 );
#342 = VERTEX_POINT( '', #406 );
#343 = CIRCLE( '', #407, 4.70039279742371 );
#344 = CARTESIAN_POINT( '', ( 3.97713342119672, 0.000000000000000, 28.6800000000000 ) );
#345 = AXIS2_PLACEMENT_3D( '', #408, #409, #410 );
#346 = CARTESIAN_POINT( '', ( 3.05338996035554, 0.000000000000000, 30.0000000000000 ) );
#347 = AXIS2_PLACEMENT_3D( '', #411, #412, #413 );
#348 = CARTESIAN_POINT( '', ( -9.00000000000000, 0.000000000000000, -11.3000000000000 ) );
#349 = AXIS2_PLACEMENT_3D( '', #414, #415, #416 );
#350 = CARTESIAN_POINT( '', ( -8.30000000000000, 0.000000000000000, -12.0000000000000 ) );
#351 = AXIS2_PLACEMENT_3D( '', #417, #418, #419 );
#352 = CARTESIAN_POINT( '', ( 5.00000000000000, 2.88675134594812, -12.0000000000000 ) );
#353 = CARTESIAN_POINT( '', ( 8.67361737988404E-016, 5.77350269189626, -12.0000000000000 ) );
#354 = CARTESIAN_POINT( '', ( 5.00000000000000, 2.88675134594812, -12.0000000000000 ) );
#355 = VECTOR( '', #420, 999.999999999999 );
#356 = CARTESIAN_POINT( '', ( 5.00000000000000, 2.88675134594812, -6.00000000000000 ) );
#357 = CARTESIAN_POINT( '', ( 5.00000000000000, 2.88675134594812, -6.00000000000000 ) );
#358 = VECTOR( '', #421, 1000.00000000000 );
#359 = CARTESIAN_POINT( '', ( 8.67361737988404E-016, 5.77350269189626, -6.00000000000000 ) );
#360 = CARTESIAN_POINT( '', ( 5.00000000000000, 2.88675134594812, -6.00000000000000 ) );
#361 = VECTOR( '', #422, 999.999999999999 );
#362 = CARTESIAN_POINT( '', ( 8.67361737988404E-016, 5.77350269189626, -6.00000000000000 ) );
#363 = VECTOR( '', #423, 1000.00000000000 );
#364 = CARTESIAN_POINT( '', ( -5.00000000000000, 2.88675134594812, -12.0000000000000 ) );
#365 = CARTESIAN_POINT( '', ( 1.30104260698260E-015, 5.77350269189626, -12.0000000000000 ) );
#366 = VECTOR( '', #424, 1000.00000000000 );
#367 = CARTESIAN_POINT( '', ( -5.00000000000000, 2.88675134594812, -6.00000000000000 ) );
#368 = CARTESIAN_POINT( '', ( 1.30104260698260E-015, 5.77350269189626, -6.00000000000000 ) );
#369 = VECTOR( '', #425, 1000.00000000000 );
#370 = CARTESIAN_POINT( '', ( -5.00000000000000, 2.88675134594812, -6.00000000000000 ) );
#371 = VECTOR( '', #426, 1000.00000000000 );
#372 = CARTESIAN_POINT( '', ( -5.00000000000000, -2.88675134594812, -6.00000000000000 ) );
#373 = CARTESIAN_POINT( '', ( 1.83526804863850E-015, -5.77350269189626, -6.00000000000000 ) );
#374 = CARTESIAN_POINT( '', ( -5.00000000000000, -2.88675134594812, -6.00000000000000 ) );
#375 = VECTOR( '', #427, 1000.00000000000 );
#376 = CARTESIAN_POINT( '', ( -5.00000000000000, 2.88675134594812, -6.00000000000000 ) );
#377 = VECTOR( '', #428, 1000.00000000000 );
#378 = CARTESIAN_POINT( '', ( 5.00000000000000, -2.88675134594812, -6.00000000000000 ) );
#379 = CARTESIAN_POINT( '', ( 5.00000000000000, -2.88675134594812, -6.00000000000000 ) );
#380 = VECTOR( '', #429, 1000.00000000000 );
#381 = CARTESIAN_POINT( '', ( 1.83526804863850E-015, -5.77350269189626, -6.00000000000000 ) );
#382 = VECTOR( '', #430, 999.999999999999 );
#383 = CARTESIAN_POINT( '', ( 9.00000000000000, 0.000000000000000, 0.000000000000000 ) );
#384 = AXIS2_PLACEMENT_3D( '', #431, #432, #433 );
#385 = CARTESIAN_POINT( '', ( -5.00000000000000, -2.88675134594812, -12.0000000000000 ) );
#386 = CARTESIAN_POINT( '', ( -5.00000000000000, 2.88675134594812, -12.0000000000000 ) );
#387 = VECTOR( '', #434, 1000.00000000000 );
#388 = CARTESIAN_POINT( '', ( 1.83526804863850E-015, -5.77350269189626, -12.0000000000000 ) );
#389 = CARTESIAN_POINT( '', ( -5.00000000000000, -2.88675134594812, -12.0000000000000 ) );
#390 = VECTOR( '', #435, 1000.00000000000 );
#391 = CARTESIAN_POINT( '', ( 5.00000000000000, -2.88675134594812, -12.0000000000000 ) );
#392 = CARTESIAN_POINT( '', ( 1.83526804863850E-015, -5.77350269189626, -12.0000000000000 ) );
#393 = VECTOR( '', #436, 999.999999999999 );
#394 = CARTESIAN_POINT( '', ( 5.00000000000000, -2.88675134594812, -12.0000000000000 ) );
#395 = VECTOR( '', #437, 1000.00000000000 );
#396 = CARTESIAN_POINT( '', ( 6.00000000000000, 0.000000000000000, 23.6800000000000 ) );
#397 = AXIS2_PLACEMENT_3D( '', #438, #439, #440 );
#398 = CARTESIAN_POINT( '', ( -6.00000000000000, 0.000000000000000, 0.000000000000000 ) );
#399 = AXIS2_PLACEMENT_3D( '', #441, #442, #443 );
#400 = CARTESIAN_POINT( '', ( -5.00000000000000, -2.88675134594812, -6.00000000000000 ) );
#401 = VECTOR( '', #444, 1000.00000000000 );
#402 = CARTESIAN_POINT( '', ( 1.83526804863850E-015, -5.77350269189626, -6.00000000000000 ) );
#403 = VECTOR( '', #445, 1000.00000000000 );
#404 = CARTESIAN_POINT( '', ( 5.00000000000000, -2.88675134594812, -6.00000000000000 ) );
#405 = VECTOR( '', #446, 1000.00000000000 );
#406 = CARTESIAN_POINT( '', ( 4.70039279742371, 0.000000000000000, 28.6800000000000 ) );
#407 = AXIS2_PLACEMENT_3D( '', #447, #448, #449 );
#408 = CARTESIAN_POINT( '', ( 0.000000000000000, 0.000000000000000, 28.6800000000000 ) );
#409 = DIRECTION( '', ( 0.000000000000000, 0.000000000000000, 1.00000000000000 ) );
#410 = DIRECTION( '', ( 1.00000000000000, 0.000000000000000, 0.000000000000000 ) );
#411 = CARTESIAN_POINT( '', ( 0.000000000000000, 0.000000000000000, 30.0000000000000 ) );
#412 = DIRECTION( '', ( 0.000000000000000, 0.000000000000000, 1.00000000000000 ) );
#413 = DIRECTION( '', ( 1.00000000000000, 0.000000000000000, 0.000000000000000 ) );
#414 = CARTESIAN_POINT( '', ( 0.000000000000000, 0.000000000000000, -11.3000000000000 ) );
#415 = DIRECTION( '', ( 0.000000000000000, 0.000000000000000, -1.00000000000000 ) );
#416 = DIRECTION( '', ( -1.00000000000000, 0.000000000000000, 0.000000000000000 ) );
#417 = CARTESIAN_POINT( '', ( 0.000000000000000, 0.000000000000000, -12.0000000000000 ) );
#418 = DIRECTION( '', ( 0.000000000000000, 0.000000000000000, -1.00000000000000 ) );
#419 = DIRECTION( '', ( -1.00000000000000, 0.000000000000000, 0.000000000000000 ) );
#420 = DIRECTION( '', ( -0.866025403784438, 0.500000000000000, 0.000000000000000 ) );
#421 = DIRECTION( '', ( 0.000000000000000, 0.000000000000000, -1.00000000000000 ) );
#422 = DIRECTION( '', ( -0.866025403784438, 0.500000000000000, 0.000000000000000 ) );
#423 = DIRECTION( '', ( 0.000000000000000, 0.000000000000000, -1.00000000000000 ) );
#424 = DIRECTION( '', ( -0.866025403784439, -0.500000000000000, 0.000000000000000 ) );
#425 = DIRECTION( '', ( -0.866025403784439, -0.500000000000000, 0.000000000000000 ) );
#426 = DIRECTION( '', ( 0.000000000000000, 0.000000000000000, -1.00000000000000 ) );
#427 = DIRECTION( '', ( 0.866025403784439, -0.500000000000000, 0.000000000000000 ) );
#428 = DIRECTION( '', ( 0.000000000000000, -1.00000000000000, 0.000000000000000 ) );
#429 = DIRECTION( '', ( 0.000000000000000, 1.00000000000000, 0.000000000000000 ) );
#430 = DIRECTION( '', ( 0.866025403784438, 0.500000000000000, 0.000000000000000 ) );
#431 = CARTESIAN_POINT( '', ( 0.000000000000000, 0.000000000000000, 0.000000000000000 ) );
#432 = DIRECTION( '', ( 0.000000000000000, 0.000000000000000, -1.00000000000000 ) );
#433 = DIRECTION( '', ( 1.00000000000000, 0.000000000000000, 0.000000000000000 ) );
#434 = DIRECTION( '', ( 0.000000000000000, -1.00000000000000, 0.000000000000000 ) );
#435 = DIRECTION( '', ( 0.866025403784439, -0.500000000000000, 0.000000000000000 ) );
#436 = DIRECTION( '', ( 0.866025403784438, 0.500000000000000, 0.000000000000000 ) );
#437 = DIRECTION( '', ( 0.000000000000000, 1.00000000000000, 0.000000000000000 ) );
#438 = CARTESIAN_POINT( '', ( 0.000000000000000, 0.000000000000000, 23.6800000000000 ) );
#439 = DIRECTION( '', ( 0.000000000000000, 0.000000000000000, 1.00000000000000 ) );
#440 = DIRECTION( '', ( 1.00000000000000, 0.000000000000000, 0.000000000000000 ) );
#441 = CARTESIAN_POINT( '', ( 0.000000000000000, 0.000000000000000, 0.000000000000000 ) );
#442 = DIRECTION( '', ( 0.000000000000000, 0.000000000000000, -1.00000000000000 ) );
#443 = DIRECTION( '', ( -1.00000000000000, 0.000000000000000, 0.000000000000000 ) );
#444 = DIRECTION( '', ( 0.000000000000000, 0.000000000000000, -1.00000000000000 ) );
#445 = DIRECTION( '', ( 0.000000000000000, 0.000000000000000, -1.00000000000000 ) );
#446 = DIRECTION( '', ( 0.000000000000000, 0.000000000000000, -1.00000000000000 ) );
#447 = CARTESIAN_POINT( '', ( 0.000000000000000, 0.000000000000000, 28.6800000000000 ) );
#448 = DIRECTION( '', ( 0.000000000000000, 0.000000000000000, 1.00000000000000 ) );
#449 = DIRECTION( '', ( 1.00000000000000, 0.000000000000000, 0.000000000000000 ) );
ENDSEC;
END-ISO-10303-21;
