ISO-10303-21;
HEADER;
FILE_DESCRIPTION( ( 'Unknown' ), '1' );
FILE_NAME( 's:/LEAVE 2D&3D CAD/LEAVE 3D-PAR/Metric/PT/PT17-3D/PT17B-0625.stp', 'Unknown', ( 'Unknown' ), ( 'Unknown' ), 'XStep 1.0', 'Unknown', '  ' );
FILE_SCHEMA( ( 'CONFIG_CONTROL_DESIGN' ) );
ENDSEC;
DATA;
#1 = DESIGN_CONTEXT( '', #27, 'design' );
#2 = APPLICATION_PROTOCOL_DEFINITION( 'INTERNATIONAL STANDARD', 'config_control_design', 1994, #27 );
#3 = PRODUCT_CATEGORY_RELATIONSHIP( 'NONE', 'NONE', #28, #29 );
#4 = DATE_AND_TIME( #30, #31 );
#5 = DATE_TIME_ROLE( 'creation_date' );
#6 = DATE_TIME_ROLE( 'classification_date' );
#7 = PERSON_AND_ORGANIZATION_ROLE( 'creator' );
#8 = PERSON_AND_ORGANIZATION_ROLE( 'design_supplier' );
#9 = PERSON_AND_ORGANIZATION_ROLE( 'classification_officer' );
#10 = PERSON_AND_ORGANIZATION_ROLE( 'design_owner' );
#11 = APPROVAL_PERSON_ORGANIZATION( #32, #33, #34 );
#12 = APPROVAL_DATE_TIME( #4, #33 );
#13 = CC_DESIGN_APPROVAL( #33, ( #35, #36, #37 ) );
#14 = CC_DESIGN_DATE_AND_TIME_ASSIGNMENT( #4, #5, ( #37 ) );
#15 = CC_DESIGN_DATE_AND_TIME_ASSIGNMENT( #4, #6, ( #35 ) );
#16 = CC_DESIGN_PERSON_AND_ORGANIZATION_ASSIGNMENT( #32, #10, ( #38 ) );
#17 = CC_DESIGN_PERSON_AND_ORGANIZATION_ASSIGNMENT( #32, #7, ( #37 ) );
#18 = CC_DESIGN_PERSON_AND_ORGANIZATION_ASSIGNMENT( #32, #7, ( #36 ) );
#19 = CC_DESIGN_PERSON_AND_ORGANIZATION_ASSIGNMENT( #32, #8, ( #36 ) );
#20 = CC_DESIGN_SECURITY_CLASSIFICATION( #35, ( #36 ) );
#21 = CC_DESIGN_PERSON_AND_ORGANIZATION_ASSIGNMENT( #32, #9, ( #35 ) );
#22 = SHAPE_DEFINITION_REPRESENTATION( #39, #40 );
#23 =  ( GEOMETRIC_REPRESENTATION_CONTEXT( 3 )GLOBAL_UNCERTAINTY_ASSIGNED_CONTEXT( ( #43 ) )GLOBAL_UNIT_ASSIGNED_CONTEXT( ( #45, #46, #47 ) )REPRESENTATION_CONTEXT( 'NONE', 'WORKSPACE' ) );
#27 = APPLICATION_CONTEXT( 'CONFIGURATION CONTROLLED 3D DESIGNS OF MECHANICAL PARTS AND ASSEMBLIES' );
#28 = PRODUCT_CATEGORY( 'part', 'NONE' );
#29 = PRODUCT_RELATED_PRODUCT_CATEGORY( 'detail', ' ', ( #38 ) );
#30 = CALENDAR_DATE( 2010, 5, 0 );
#31 = LOCAL_TIME( 10, 18, 21.0000000000000, #49 );
#32 = PERSON_AND_ORGANIZATION( #50, #51 );
#33 = APPROVAL( #52, 'SOLID MODEL' );
#34 = APPROVAL_ROLE( 'APPROVED' );
#35 = SECURITY_CLASSIFICATION( '', '', #53 );
#36 = PRODUCT_DEFINITION_FORMATION_WITH_SPECIFIED_SOURCE( ' ', 'NONE', #38, .NOT_KNOWN. );
#37 = PRODUCT_DEFINITION( 'NONE', 'NONE', #36, #1 );
#38 = PRODUCT( '1', '1', 'PART-1-DESC', ( #54 ) );
#39 = PRODUCT_DEFINITION_SHAPE( 'NONE', 'NONE', #37 );
#40 = ADVANCED_BREP_SHAPE_REPRESENTATION( '1', ( #55, #56 ), #23 );
#43 = UNCERTAINTY_MEASURE_WITH_UNIT( LENGTH_MEASURE( 0.00100000000000000 ), #45, '', '' );
#45 =  ( CONVERSION_BASED_UNIT( 'MILLIMETRE', #59 )LENGTH_UNIT(  )NAMED_UNIT( #62 ) );
#46 =  ( NAMED_UNIT( #64 )PLANE_ANGLE_UNIT(  )SI_UNIT( $, .RADIAN. ) );
#47 =  ( NAMED_UNIT( #64 )SOLID_ANGLE_UNIT(  )SI_UNIT( $, .STERADIAN. ) );
#49 = COORDINATED_UNIVERSAL_TIME_OFFSET( 8, 0, .AHEAD. );
#50 = PERSON( '', 'UNSPECIFIED', $, $, $, $ );
#51 = ORGANIZATION( 'UNSPECIFIED', 'UNSPECIFIED', 'UNSPECIFIED' );
#52 = APPROVAL_STATUS( 'approved' );
#53 = SECURITY_CLASSIFICATION_LEVEL( 'unclassified' );
#54 = MECHANICAL_CONTEXT( '', #27, 'mechanical' );
#55 = MANIFOLD_SOLID_BREP( '1', #70 );
#56 = AXIS2_PLACEMENT_3D( '', #71, #72, #73 );
#59 = LENGTH_MEASURE_WITH_UNIT( LENGTH_MEASURE( 1.00000000000000 ), #74 );
#62 = DIMENSIONAL_EXPONENTS( 1.00000000000000, 0.000000000000000, 0.000000000000000, 0.000000000000000, 0.000000000000000, 0.000000000000000, 0.000000000000000 );
#64 = DIMENSIONAL_EXPONENTS( 0.000000000000000, 0.000000000000000, 0.000000000000000, 0.000000000000000, 0.000000000000000, 0.000000000000000, 0.000000000000000 );
#70 = CLOSED_SHELL( '', ( #75, #76, #77, #78, #79, #80, #81, #82, #83, #84, #85, #86, #87, #88, #89, #90, #91 ) );
#71 = CARTESIAN_POINT( '', ( 0.000000000000000, 0.000000000000000, 0.000000000000000 ) );
#72 = DIRECTION( '', ( 0.000000000000000, 0.000000000000000, 1.00000000000000 ) );
#73 = DIRECTION( '', ( 1.00000000000000, 0.000000000000000, 0.000000000000000 ) );
#74 =  ( NAMED_UNIT( #62 )LENGTH_UNIT(  )SI_UNIT( .MILLI., .METRE. ) );
#75 = ADVANCED_FACE( '', ( #93, #94 ), #95, .T. );
#76 = ADVANCED_FACE( '', ( #96, #97 ), #98, .F. );
#77 = ADVANCED_FACE( '', ( #99 ), #100, .T. );
#78 = ADVANCED_FACE( '', ( #101 ), #102, .T. );
#79 = ADVANCED_FACE( '', ( #103 ), #104, .F. );
#80 = ADVANCED_FACE( '', ( #105, #106 ), #107, .F. );
#81 = ADVANCED_FACE( '', ( #108 ), #109, .T. );
#82 = ADVANCED_FACE( '', ( #110, #111 ), #112, .T. );
#83 = ADVANCED_FACE( '', ( #113, #114 ), #115, .T. );
#84 = ADVANCED_FACE( '', ( #116, #117 ), #118, .T. );
#85 = ADVANCED_FACE( '', ( #119 ), #120, .T. );
#86 = ADVANCED_FACE( '', ( #121 ), #122, .T. );
#87 = ADVANCED_FACE( '', ( #123 ), #124, .T. );
#88 = ADVANCED_FACE( '', ( #125 ), #126, .T. );
#89 = ADVANCED_FACE( '', ( #127, #128 ), #129, .T. );
#90 = ADVANCED_FACE( '', ( #130, #131 ), #132, .T. );
#91 = ADVANCED_FACE( '', ( #133, #134 ), #135, .T. );
#93 = FACE_OUTER_BOUND( '', #136, .T. );
#94 = FACE_OUTER_BOUND( '', #137, .T. );
#95 = SPHERICAL_SURFACE( '', #138, 2.00000000000000 );
#96 = FACE_OUTER_BOUND( '', #139, .T. );
#97 = FACE_OUTER_BOUND( '', #140, .T. );
#98 = TOROIDAL_SURFACE( '', #141, 3.50000000000000, 0.500000000000000 );
#99 = FACE_OUTER_BOUND( '', #142, .T. );
#100 = PLANE( '', #143 );
#101 = FACE_OUTER_BOUND( '', #144, .T. );
#102 = PLANE( '', #145 );
#103 = FACE_OUTER_BOUND( '', #146, .T. );
#104 = PLANE( '', #147 );
#105 = FACE_BOUND( '', #148, .T. );
#106 = FACE_OUTER_BOUND( '', #149, .T. );
#107 = PLANE( '', #150 );
#108 = FACE_OUTER_BOUND( '', #151, .T. );
#109 = PLANE( '', #152 );
#110 = FACE_OUTER_BOUND( '', #153, .T. );
#111 = FACE_BOUND( '', #154, .T. );
#112 = CONICAL_SURFACE( '', #155, 4.50000000000000, 0.785398163397448 );
#113 = FACE_OUTER_BOUND( '', #156, .T. );
#114 = FACE_BOUND( '', #157, .T. );
#115 = PLANE( '', #158 );
#116 = FACE_OUTER_BOUND( '', #159, .T. );
#117 = FACE_OUTER_BOUND( '', #160, .T. );
#118 = CYLINDRICAL_SURFACE( '', #161, 3.00000000000000 );
#119 = FACE_OUTER_BOUND( '', #162, .T. );
#120 = PLANE( '', #163 );
#121 = FACE_OUTER_BOUND( '', #164, .T. );
#122 = PLANE( '', #165 );
#123 = FACE_OUTER_BOUND( '', #166, .T. );
#124 = PLANE( '', #167 );
#125 = FACE_OUTER_BOUND( '', #168, .T. );
#126 = PLANE( '', #169 );
#127 = FACE_OUTER_BOUND( '', #170, .T. );
#128 = FACE_OUTER_BOUND( '', #171, .T. );
#129 = CYLINDRICAL_SURFACE( '', #172, 5.00000000000000 );
#130 = FACE_OUTER_BOUND( '', #173, .T. );
#131 = FACE_BOUND( '', #174, .T. );
#132 = CONICAL_SURFACE( '', #175, 2.35019639871186, 0.254294472015574 );
#133 = FACE_BOUND( '', #176, .T. );
#134 = FACE_OUTER_BOUND( '', #177, .T. );
#135 = PLANE( '', #178 );
#136 = EDGE_LOOP( '', ( #179 ) );
#137 = EDGE_LOOP( '', ( #180 ) );
#138 = AXIS2_PLACEMENT_3D( '', #181, #182, #183 );
#139 = EDGE_LOOP( '', ( #184 ) );
#140 = EDGE_LOOP( '', ( #185 ) );
#141 = AXIS2_PLACEMENT_3D( '', #186, #187, #188 );
#142 = EDGE_LOOP( '', ( #189, #190, #191, #192 ) );
#143 = AXIS2_PLACEMENT_3D( '', #193, #194, #195 );
#144 = EDGE_LOOP( '', ( #196, #197, #198, #199 ) );
#145 = AXIS2_PLACEMENT_3D( '', #200, #201, #202 );
#146 = EDGE_LOOP( '', ( #203, #204, #205, #206, #207, #208 ) );
#147 = AXIS2_PLACEMENT_3D( '', #209, #210, #211 );
#148 = EDGE_LOOP( '', ( #212 ) );
#149 = EDGE_LOOP( '', ( #213 ) );
#150 = AXIS2_PLACEMENT_3D( '', #214, #215, #216 );
#151 = EDGE_LOOP( '', ( #217 ) );
#152 = AXIS2_PLACEMENT_3D( '', #218, #219, #220 );
#153 = EDGE_LOOP( '', ( #221 ) );
#154 = EDGE_LOOP( '', ( #222 ) );
#155 = AXIS2_PLACEMENT_3D( '', #223, #224, #225 );
#156 = EDGE_LOOP( '', ( #226 ) );
#157 = EDGE_LOOP( '', ( #227, #228, #229, #230, #231, #232 ) );
#158 = AXIS2_PLACEMENT_3D( '', #233, #234, #235 );
#159 = EDGE_LOOP( '', ( #236 ) );
#160 = EDGE_LOOP( '', ( #237 ) );
#161 = AXIS2_PLACEMENT_3D( '', #238, #239, #240 );
#162 = EDGE_LOOP( '', ( #241, #242, #243, #244 ) );
#163 = AXIS2_PLACEMENT_3D( '', #245, #246, #247 );
#164 = EDGE_LOOP( '', ( #248, #249, #250, #251 ) );
#165 = AXIS2_PLACEMENT_3D( '', #252, #253, #254 );
#166 = EDGE_LOOP( '', ( #255, #256, #257, #258 ) );
#167 = AXIS2_PLACEMENT_3D( '', #259, #260, #261 );
#168 = EDGE_LOOP( '', ( #262, #263, #264, #265 ) );
#169 = AXIS2_PLACEMENT_3D( '', #266, #267, #268 );
#170 = EDGE_LOOP( '', ( #269 ) );
#171 = EDGE_LOOP( '', ( #270 ) );
#172 = AXIS2_PLACEMENT_3D( '', #271, #272, #273 );
#173 = EDGE_LOOP( '', ( #274 ) );
#174 = EDGE_LOOP( '', ( #275 ) );
#175 = AXIS2_PLACEMENT_3D( '', #276, #277, #278 );
#176 = EDGE_LOOP( '', ( #279 ) );
#177 = EDGE_LOOP( '', ( #280 ) );
#178 = AXIS2_PLACEMENT_3D( '', #281, #282, #283 );
#179 = ORIENTED_EDGE( '', *, *, #284, .T. );
#180 = ORIENTED_EDGE( '', *, *, #285, .T. );
#181 = CARTESIAN_POINT( '', ( 0.000000000000000, 0.000000000000000, 21.5000000000000 ) );
#182 = DIRECTION( '', ( -7.49855125712043E-033, -1.22464679914735E-016, 1.00000000000000 ) );
#183 = DIRECTION( '', ( -6.12303176911189E-017, -1.00000000000000, -1.22464679914735E-016 ) );
#184 = ORIENTED_EDGE( '', *, *, #286, .F. );
#185 = ORIENTED_EDGE( '', *, *, #287, .F. );
#186 = CARTESIAN_POINT( '', ( 0.000000000000000, 0.000000000000000, 0.500000000000000 ) );
#187 = DIRECTION( '', ( 0.000000000000000, 0.000000000000000, -1.00000000000000 ) );
#188 = DIRECTION( '', ( -1.00000000000000, 0.000000000000000, 0.000000000000000 ) );
#189 = ORIENTED_EDGE( '', *, *, #288, .F. );
#190 = ORIENTED_EDGE( '', *, *, #289, .F. );
#191 = ORIENTED_EDGE( '', *, *, #290, .T. );
#192 = ORIENTED_EDGE( '', *, *, #291, .T. );
#193 = CARTESIAN_POINT( '', ( 2.50000000000000, 1.44337567297406, -3.00000000000000 ) );
#194 = DIRECTION( '', ( -0.500000000000001, -0.866025403784438, 0.000000000000000 ) );
#195 = DIRECTION( '', ( 0.866025403784438, -0.500000000000001, 0.000000000000000 ) );
#196 = ORIENTED_EDGE( '', *, *, #292, .F. );
#197 = ORIENTED_EDGE( '', *, *, #291, .F. );
#198 = ORIENTED_EDGE( '', *, *, #293, .T. );
#199 = ORIENTED_EDGE( '', *, *, #294, .T. );
#200 = CARTESIAN_POINT( '', ( 6.50521303491303E-016, 2.88675134594813, -3.00000000000000 ) );
#201 = DIRECTION( '', ( 0.500000000000000, -0.866025403784439, 0.000000000000000 ) );
#202 = DIRECTION( '', ( 0.866025403784439, 0.500000000000000, 0.000000000000000 ) );
#203 = ORIENTED_EDGE( '', *, *, #295, .F. );
#204 = ORIENTED_EDGE( '', *, *, #296, .F. );
#205 = ORIENTED_EDGE( '', *, *, #293, .F. );
#206 = ORIENTED_EDGE( '', *, *, #290, .F. );
#207 = ORIENTED_EDGE( '', *, *, #297, .F. );
#208 = ORIENTED_EDGE( '', *, *, #298, .F. );
#209 = CARTESIAN_POINT( '', ( 2.50000000000000, -4.33012701892219, -3.00000000000000 ) );
#210 = DIRECTION( '', ( 0.000000000000000, 0.000000000000000, 1.00000000000000 ) );
#211 = DIRECTION( '', ( 1.00000000000000, 0.000000000000000, 0.000000000000000 ) );
#212 = ORIENTED_EDGE( '', *, *, #287, .T. );
#213 = ORIENTED_EDGE( '', *, *, #299, .F. );
#214 = CARTESIAN_POINT( '', ( 0.000000000000000, 0.000000000000000, 0.000000000000000 ) );
#215 = DIRECTION( '', ( 0.000000000000000, 0.000000000000000, -1.00000000000000 ) );
#216 = DIRECTION( '', ( -1.00000000000000, 0.000000000000000, 0.000000000000000 ) );
#217 = ORIENTED_EDGE( '', *, *, #285, .F. );
#218 = CARTESIAN_POINT( '', ( 3.00000000000000, -3.00000000000000, 23.0000000000000 ) );
#219 = DIRECTION( '', ( 0.000000000000000, 0.000000000000000, 1.00000000000000 ) );
#220 = DIRECTION( '', ( 1.00000000000000, 0.000000000000000, 0.000000000000000 ) );
#221 = ORIENTED_EDGE( '', *, *, #300, .F. );
#222 = ORIENTED_EDGE( '', *, *, #301, .F. );
#223 = CARTESIAN_POINT( '', ( 0.000000000000000, 0.000000000000000, -6.00000000000000 ) );
#224 = DIRECTION( '', ( -0.000000000000000, -0.000000000000000, 1.00000000000000 ) );
#225 = DIRECTION( '', ( 1.00000000000000, 0.000000000000000, 0.000000000000000 ) );
#226 = ORIENTED_EDGE( '', *, *, #301, .T. );
#227 = ORIENTED_EDGE( '', *, *, #302, .T. );
#228 = ORIENTED_EDGE( '', *, *, #303, .T. );
#229 = ORIENTED_EDGE( '', *, *, #304, .T. );
#230 = ORIENTED_EDGE( '', *, *, #305, .T. );
#231 = ORIENTED_EDGE( '', *, *, #288, .T. );
#232 = ORIENTED_EDGE( '', *, *, #292, .T. );
#233 = CARTESIAN_POINT( '', ( 0.000000000000000, 0.000000000000000, -6.00000000000000 ) );
#234 = DIRECTION( '', ( 0.000000000000000, 0.000000000000000, -1.00000000000000 ) );
#235 = DIRECTION( '', ( -1.00000000000000, 0.000000000000000, 0.000000000000000 ) );
#236 = ORIENTED_EDGE( '', *, *, #286, .T. );
#237 = ORIENTED_EDGE( '', *, *, #306, .T. );
#238 = CARTESIAN_POINT( '', ( 0.000000000000000, 0.000000000000000, 22.1000000000000 ) );
#239 = DIRECTION( '', ( -0.000000000000000, -0.000000000000000, 1.00000000000000 ) );
#240 = DIRECTION( '', ( -1.00000000000000, 0.000000000000000, 0.000000000000000 ) );
#241 = ORIENTED_EDGE( '', *, *, #302, .F. );
#242 = ORIENTED_EDGE( '', *, *, #294, .F. );
#243 = ORIENTED_EDGE( '', *, *, #296, .T. );
#244 = ORIENTED_EDGE( '', *, *, #307, .T. );
#245 = CARTESIAN_POINT( '', ( -2.50000000000000, 1.44337567297406, -3.00000000000000 ) );
#246 = DIRECTION( '', ( 1.00000000000000, 0.000000000000000, 0.000000000000000 ) );
#247 = DIRECTION( '', ( 0.000000000000000, 0.000000000000000, -1.00000000000000 ) );
#248 = ORIENTED_EDGE( '', *, *, #305, .F. );
#249 = ORIENTED_EDGE( '', *, *, #308, .F. );
#250 = ORIENTED_EDGE( '', *, *, #297, .T. );
#251 = ORIENTED_EDGE( '', *, *, #289, .T. );
#252 = CARTESIAN_POINT( '', ( 2.50000000000000, -1.44337567297406, -3.00000000000000 ) );
#253 = DIRECTION( '', ( -1.00000000000000, 0.000000000000000, 0.000000000000000 ) );
#254 = DIRECTION( '', ( 0.000000000000000, 0.000000000000000, 1.00000000000000 ) );
#255 = ORIENTED_EDGE( '', *, *, #304, .F. );
#256 = ORIENTED_EDGE( '', *, *, #309, .F. );
#257 = ORIENTED_EDGE( '', *, *, #298, .T. );
#258 = ORIENTED_EDGE( '', *, *, #308, .T. );
#259 = CARTESIAN_POINT( '', ( -2.22655227588871E-015, -2.88675134594812, -3.00000000000000 ) );
#260 = DIRECTION( '', ( -0.500000000000000, 0.866025403784438, 0.000000000000000 ) );
#261 = DIRECTION( '', ( -0.866025403784438, -0.500000000000000, 0.000000000000000 ) );
#262 = ORIENTED_EDGE( '', *, *, #303, .F. );
#263 = ORIENTED_EDGE( '', *, *, #307, .F. );
#264 = ORIENTED_EDGE( '', *, *, #295, .T. );
#265 = ORIENTED_EDGE( '', *, *, #309, .T. );
#266 = CARTESIAN_POINT( '', ( -2.50000000000000, -1.44337567297406, -3.00000000000000 ) );
#267 = DIRECTION( '', ( 0.500000000000000, 0.866025403784439, 0.000000000000000 ) );
#268 = DIRECTION( '', ( -0.866025403784439, 0.500000000000000, 0.000000000000000 ) );
#269 = ORIENTED_EDGE( '', *, *, #300, .T. );
#270 = ORIENTED_EDGE( '', *, *, #299, .T. );
#271 = CARTESIAN_POINT( '', ( 0.000000000000000, 0.000000000000000, -6.00000000000000 ) );
#272 = DIRECTION( '', ( -0.000000000000000, -0.000000000000000, -1.00000000000000 ) );
#273 = DIRECTION( '', ( 1.00000000000000, 0.000000000000000, 0.000000000000000 ) );
#274 = ORIENTED_EDGE( '', *, *, #306, .F. );
#275 = ORIENTED_EDGE( '', *, *, #310, .F. );
#276 = CARTESIAN_POINT( '', ( 0.000000000000000, 0.000000000000000, 22.1000000000000 ) );
#277 = DIRECTION( '', ( -0.000000000000000, 0.000000000000000, -1.00000000000000 ) );
#278 = DIRECTION( '', ( -1.00000000000000, 0.000000000000000, 0.000000000000000 ) );
#279 = ORIENTED_EDGE( '', *, *, #284, .F. );
#280 = ORIENTED_EDGE( '', *, *, #310, .T. );
#281 = CARTESIAN_POINT( '', ( 0.000000000000000, 0.000000000000000, 22.1000000000000 ) );
#282 = DIRECTION( '', ( 0.000000000000000, 0.000000000000000, 1.00000000000000 ) );
#283 = DIRECTION( '', ( 1.00000000000000, 0.000000000000000, 0.000000000000000 ) );
#284 = EDGE_CURVE( '', #311, #311, #312, .T. );
#285 = EDGE_CURVE( '', #313, #313, #314, .F. );
#286 = EDGE_CURVE( '', #315, #315, #316, .F. );
#287 = EDGE_CURVE( '', #317, #317, #318, .T. );
#288 = EDGE_CURVE( '', #319, #320, #321, .T. );
#289 = EDGE_CURVE( '', #322, #319, #323, .T. );
#290 = EDGE_CURVE( '', #322, #324, #325, .T. );
#291 = EDGE_CURVE( '', #324, #320, #326, .T. );
#292 = EDGE_CURVE( '', #320, #327, #328, .T. );
#293 = EDGE_CURVE( '', #324, #329, #330, .T. );
#294 = EDGE_CURVE( '', #329, #327, #331, .T. );
#295 = EDGE_CURVE( '', #332, #333, #334, .T. );
#296 = EDGE_CURVE( '', #329, #332, #335, .T. );
#297 = EDGE_CURVE( '', #336, #322, #337, .T. );
#298 = EDGE_CURVE( '', #333, #336, #338, .T. );
#299 = EDGE_CURVE( '', #339, #339, #340, .T. );
#300 = EDGE_CURVE( '', #341, #341, #342, .F. );
#301 = EDGE_CURVE( '', #343, #343, #344, .T. );
#302 = EDGE_CURVE( '', #327, #345, #346, .T. );
#303 = EDGE_CURVE( '', #345, #347, #348, .T. );
#304 = EDGE_CURVE( '', #347, #349, #350, .T. );
#305 = EDGE_CURVE( '', #349, #319, #351, .T. );
#306 = EDGE_CURVE( '', #352, #352, #353, .F. );
#307 = EDGE_CURVE( '', #332, #345, #354, .T. );
#308 = EDGE_CURVE( '', #336, #349, #355, .T. );
#309 = EDGE_CURVE( '', #333, #347, #356, .T. );
#310 = EDGE_CURVE( '', #357, #357, #358, .T. );
#311 = VERTEX_POINT( '', #359 );
#312 = CIRCLE( '', #360, 1.90787840283389 );
#313 = VERTEX_POINT( '', #361 );
#314 = CIRCLE( '', #362, 1.32287565553229 );
#315 = VERTEX_POINT( '', #363 );
#316 = CIRCLE( '', #364, 3.00000000000000 );
#317 = VERTEX_POINT( '', #365 );
#318 = CIRCLE( '', #366, 3.50000000000000 );
#319 = VERTEX_POINT( '', #367 );
#320 = VERTEX_POINT( '', #368 );
#321 = LINE( '', #369, #370 );
#322 = VERTEX_POINT( '', #371 );
#323 = LINE( '', #372, #373 );
#324 = VERTEX_POINT( '', #374 );
#325 = LINE( '', #375, #376 );
#326 = LINE( '', #377, #378 );
#327 = VERTEX_POINT( '', #379 );
#328 = LINE( '', #380, #381 );
#329 = VERTEX_POINT( '', #382 );
#330 = LINE( '', #383, #384 );
#331 = LINE( '', #385, #386 );
#332 = VERTEX_POINT( '', #387 );
#333 = VERTEX_POINT( '', #388 );
#334 = LINE( '', #389, #390 );
#335 = LINE( '', #391, #392 );
#336 = VERTEX_POINT( '', #393 );
#337 = LINE( '', #394, #395 );
#338 = LINE( '', #396, #397 );
#339 = VERTEX_POINT( '', #398 );
#340 = CIRCLE( '', #399, 5.00000000000000 );
#341 = VERTEX_POINT( '', #400 );
#342 = CIRCLE( '', #401, 5.00000000000000 );
#343 = VERTEX_POINT( '', #402 );
#344 = CIRCLE( '', #403, 4.50000000000000 );
#345 = VERTEX_POINT( '', #404 );
#346 = LINE( '', #405, #406 );
#347 = VERTEX_POINT( '', #407 );
#348 = LINE( '', #408, #409 );
#349 = VERTEX_POINT( '', #410 );
#350 = LINE( '', #411, #412 );
#351 = LINE( '', #413, #414 );
#352 = VERTEX_POINT( '', #415 );
#353 = CIRCLE( '', #416, 3.00000000000000 );
#354 = LINE( '', #417, #418 );
#355 = LINE( '', #419, #420 );
#356 = LINE( '', #421, #422 );
#357 = VERTEX_POINT( '', #423 );
#358 = CIRCLE( '', #424, 2.35019639871186 );
#359 = CARTESIAN_POINT( '', ( 1.90787840283389, 0.000000000000000, 22.1000000000000 ) );
#360 = AXIS2_PLACEMENT_3D( '', #425, #426, #427 );
#361 = CARTESIAN_POINT( '', ( 1.32287565553229, 0.000000000000000, 23.0000000000000 ) );
#362 = AXIS2_PLACEMENT_3D( '', #428, #429, #430 );
#363 = CARTESIAN_POINT( '', ( -3.00000000000000, 0.000000000000000, 0.500000000000000 ) );
#364 = AXIS2_PLACEMENT_3D( '', #431, #432, #433 );
#365 = CARTESIAN_POINT( '', ( -3.50000000000000, 0.000000000000000, 0.000000000000000 ) );
#366 = AXIS2_PLACEMENT_3D( '', #434, #435, #436 );
#367 = CARTESIAN_POINT( '', ( 2.50000000000000, 1.44337567297406, -6.00000000000000 ) );
#368 = CARTESIAN_POINT( '', ( 4.33680868994202E-016, 2.88675134594813, -6.00000000000000 ) );
#369 = CARTESIAN_POINT( '', ( 2.50000000000000, 1.44337567297406, -6.00000000000000 ) );
#370 = VECTOR( '', #437, 999.999999999999 );
#371 = CARTESIAN_POINT( '', ( 2.50000000000000, 1.44337567297406, -3.00000000000000 ) );
#372 = CARTESIAN_POINT( '', ( 2.50000000000000, 1.44337567297406, -3.00000000000000 ) );
#373 = VECTOR( '', #438, 1000.00000000000 );
#374 = CARTESIAN_POINT( '', ( 4.33680868994202E-016, 2.88675134594813, -3.00000000000000 ) );
#375 = CARTESIAN_POINT( '', ( 2.50000000000000, 1.44337567297406, -3.00000000000000 ) );
#376 = VECTOR( '', #439, 999.999999999999 );
#377 = CARTESIAN_POINT( '', ( 4.33680868994202E-016, 2.88675134594813, -3.00000000000000 ) );
#378 = VECTOR( '', #440, 1000.00000000000 );
#379 = CARTESIAN_POINT( '', ( -2.50000000000000, 1.44337567297406, -6.00000000000000 ) );
#380 = CARTESIAN_POINT( '', ( 6.50521303491303E-016, 2.88675134594813, -6.00000000000000 ) );
#381 = VECTOR( '', #441, 1000.00000000000 );
#382 = CARTESIAN_POINT( '', ( -2.50000000000000, 1.44337567297406, -3.00000000000000 ) );
#383 = CARTESIAN_POINT( '', ( 6.50521303491303E-016, 2.88675134594813, -3.00000000000000 ) );
#384 = VECTOR( '', #442, 1000.00000000000 );
#385 = CARTESIAN_POINT( '', ( -2.50000000000000, 1.44337567297406, -3.00000000000000 ) );
#386 = VECTOR( '', #443, 1000.00000000000 );
#387 = CARTESIAN_POINT( '', ( -2.50000000000000, -1.44337567297406, -3.00000000000000 ) );
#388 = CARTESIAN_POINT( '', ( -2.22655227588871E-015, -2.88675134594812, -3.00000000000000 ) );
#389 = CARTESIAN_POINT( '', ( -2.50000000000000, -1.44337567297406, -3.00000000000000 ) );
#390 = VECTOR( '', #444, 1000.00000000000 );
#391 = CARTESIAN_POINT( '', ( -2.50000000000000, 1.44337567297406, -3.00000000000000 ) );
#392 = VECTOR( '', #445, 1000.00000000000 );
#393 = CARTESIAN_POINT( '', ( 2.50000000000000, -1.44337567297406, -3.00000000000000 ) );
#394 = CARTESIAN_POINT( '', ( 2.50000000000000, -1.44337567297406, -3.00000000000000 ) );
#395 = VECTOR( '', #446, 1000.00000000000 );
#396 = CARTESIAN_POINT( '', ( -2.22655227588871E-015, -2.88675134594812, -3.00000000000000 ) );
#397 = VECTOR( '', #447, 999.999999999999 );
#398 = CARTESIAN_POINT( '', ( 5.00000000000000, 0.000000000000000, 0.000000000000000 ) );
#399 = AXIS2_PLACEMENT_3D( '', #448, #449, #450 );
#400 = CARTESIAN_POINT( '', ( -5.00000000000000, 0.000000000000000, -5.50000000000000 ) );
#401 = AXIS2_PLACEMENT_3D( '', #451, #452, #453 );
#402 = CARTESIAN_POINT( '', ( -4.50000000000000, 0.000000000000000, -6.00000000000000 ) );
#403 = AXIS2_PLACEMENT_3D( '', #454, #455, #456 );
#404 = CARTESIAN_POINT( '', ( -2.50000000000000, -1.44337567297406, -6.00000000000000 ) );
#405 = CARTESIAN_POINT( '', ( -2.50000000000000, 1.44337567297406, -6.00000000000000 ) );
#406 = VECTOR( '', #457, 1000.00000000000 );
#407 = CARTESIAN_POINT( '', ( -2.22655227588871E-015, -2.88675134594812, -6.00000000000000 ) );
#408 = CARTESIAN_POINT( '', ( -2.50000000000000, -1.44337567297406, -6.00000000000000 ) );
#409 = VECTOR( '', #458, 1000.00000000000 );
#410 = CARTESIAN_POINT( '', ( 2.50000000000000, -1.44337567297406, -6.00000000000000 ) );
#411 = CARTESIAN_POINT( '', ( -2.22655227588871E-015, -2.88675134594812, -6.00000000000000 ) );
#412 = VECTOR( '', #459, 999.999999999999 );
#413 = CARTESIAN_POINT( '', ( 2.50000000000000, -1.44337567297406, -6.00000000000000 ) );
#414 = VECTOR( '', #460, 1000.00000000000 );
#415 = CARTESIAN_POINT( '', ( 3.00000000000000, 0.000000000000000, 19.6000000000000 ) );
#416 = AXIS2_PLACEMENT_3D( '', #461, #462, #463 );
#417 = CARTESIAN_POINT( '', ( -2.50000000000000, -1.44337567297406, -3.00000000000000 ) );
#418 = VECTOR( '', #464, 1000.00000000000 );
#419 = CARTESIAN_POINT( '', ( 2.50000000000000, -1.44337567297406, -3.00000000000000 ) );
#420 = VECTOR( '', #465, 1000.00000000000 );
#421 = CARTESIAN_POINT( '', ( -2.22655227588871E-015, -2.88675134594812, -3.00000000000000 ) );
#422 = VECTOR( '', #466, 1000.00000000000 );
#423 = CARTESIAN_POINT( '', ( 2.35019639871186, 0.000000000000000, 22.1000000000000 ) );
#424 = AXIS2_PLACEMENT_3D( '', #467, #468, #469 );
#425 = CARTESIAN_POINT( '', ( 0.000000000000000, 0.000000000000000, 22.1000000000000 ) );
#426 = DIRECTION( '', ( 0.000000000000000, 0.000000000000000, 1.00000000000000 ) );
#427 = DIRECTION( '', ( 1.00000000000000, 0.000000000000000, 0.000000000000000 ) );
#428 = CARTESIAN_POINT( '', ( 0.000000000000000, 0.000000000000000, 23.0000000000000 ) );
#429 = DIRECTION( '', ( 0.000000000000000, 0.000000000000000, 1.00000000000000 ) );
#430 = DIRECTION( '', ( 1.00000000000000, 0.000000000000000, 0.000000000000000 ) );
#431 = CARTESIAN_POINT( '', ( 0.000000000000000, 0.000000000000000, 0.500000000000000 ) );
#432 = DIRECTION( '', ( 0.000000000000000, 0.000000000000000, -1.00000000000000 ) );
#433 = DIRECTION( '', ( -1.00000000000000, 0.000000000000000, 0.000000000000000 ) );
#434 = CARTESIAN_POINT( '', ( 0.000000000000000, 0.000000000000000, 0.000000000000000 ) );
#435 = DIRECTION( '', ( 0.000000000000000, 0.000000000000000, -1.00000000000000 ) );
#436 = DIRECTION( '', ( -1.00000000000000, 0.000000000000000, 0.000000000000000 ) );
#437 = DIRECTION( '', ( -0.866025403784438, 0.500000000000000, 0.000000000000000 ) );
#438 = DIRECTION( '', ( 0.000000000000000, 0.000000000000000, -1.00000000000000 ) );
#439 = DIRECTION( '', ( -0.866025403784438, 0.500000000000000, 0.000000000000000 ) );
#440 = DIRECTION( '', ( 0.000000000000000, 0.000000000000000, -1.00000000000000 ) );
#441 = DIRECTION( '', ( -0.866025403784439, -0.500000000000000, 0.000000000000000 ) );
#442 = DIRECTION( '', ( -0.866025403784439, -0.500000000000000, 0.000000000000000 ) );
#443 = DIRECTION( '', ( 0.000000000000000, 0.000000000000000, -1.00000000000000 ) );
#444 = DIRECTION( '', ( 0.866025403784439, -0.500000000000000, 0.000000000000000 ) );
#445 = DIRECTION( '', ( 0.000000000000000, -1.00000000000000, 0.000000000000000 ) );
#446 = DIRECTION( '', ( 0.000000000000000, 1.00000000000000, 0.000000000000000 ) );
#447 = DIRECTION( '', ( 0.866025403784438, 0.500000000000000, 0.000000000000000 ) );
#448 = CARTESIAN_POINT( '', ( 0.000000000000000, 0.000000000000000, 0.000000000000000 ) );
#449 = DIRECTION( '', ( 0.000000000000000, 0.000000000000000, -1.00000000000000 ) );
#450 = DIRECTION( '', ( 1.00000000000000, 0.000000000000000, 0.000000000000000 ) );
#451 = CARTESIAN_POINT( '', ( 0.000000000000000, 0.000000000000000, -5.50000000000000 ) );
#452 = DIRECTION( '', ( 0.000000000000000, 0.000000000000000, -1.00000000000000 ) );
#453 = DIRECTION( '', ( -1.00000000000000, 0.000000000000000, 0.000000000000000 ) );
#454 = CARTESIAN_POINT( '', ( 0.000000000000000, 0.000000000000000, -6.00000000000000 ) );
#455 = DIRECTION( '', ( 0.000000000000000, 0.000000000000000, -1.00000000000000 ) );
#456 = DIRECTION( '', ( -1.00000000000000, 0.000000000000000, 0.000000000000000 ) );
#457 = DIRECTION( '', ( 0.000000000000000, -1.00000000000000, 0.000000000000000 ) );
#458 = DIRECTION( '', ( 0.866025403784439, -0.500000000000000, 0.000000000000000 ) );
#459 = DIRECTION( '', ( 0.866025403784438, 0.500000000000000, 0.000000000000000 ) );
#460 = DIRECTION( '', ( 0.000000000000000, 1.00000000000000, 0.000000000000000 ) );
#461 = CARTESIAN_POINT( '', ( 0.000000000000000, 0.000000000000000, 19.6000000000000 ) );
#462 = DIRECTION( '', ( 0.000000000000000, 0.000000000000000, 1.00000000000000 ) );
#463 = DIRECTION( '', ( 1.00000000000000, 0.000000000000000, 0.000000000000000 ) );
#464 = DIRECTION( '', ( 0.000000000000000, 0.000000000000000, -1.00000000000000 ) );
#465 = DIRECTION( '', ( 0.000000000000000, 0.000000000000000, -1.00000000000000 ) );
#466 = DIRECTION( '', ( 0.000000000000000, 0.000000000000000, -1.00000000000000 ) );
#467 = CARTESIAN_POINT( '', ( 0.000000000000000, 0.000000000000000, 22.1000000000000 ) );
#468 = DIRECTION( '', ( 0.000000000000000, 0.000000000000000, 1.00000000000000 ) );
#469 = DIRECTION( '', ( 1.00000000000000, 0.000000000000000, 0.000000000000000 ) );
ENDSEC;
END-ISO-10303-21;
