ISO-10303-21;
HEADER;
FILE_DESCRIPTION( ( 'Unknown' ), '1' );
FILE_NAME( 'S:/LEAVE 2D&3D CAD/LEAVE 3D-PAR/Metric/PT/PT25-3D/PT25-1428.stp', 'Unknown', ( 'Unknown' ), ( 'Unknown' ), 'XStep 1.0', 'Unknown', '  ' );
FILE_SCHEMA( ( 'CONFIG_CONTROL_DESIGN' ) );
ENDSEC;
DATA;
#1 = DESIGN_CONTEXT( '', #71, 'design' );
#2 = APPLICATION_PROTOCOL_DEFINITION( 'INTERNATIONAL STANDARD', 'config_control_design', 1994, #71 );
#3 = PRODUCT_CATEGORY_RELATIONSHIP( 'NONE', 'NONE', #72, #73 );
#4 = DATE_AND_TIME( #74, #75 );
#5 = DATE_TIME_ROLE( 'creation_date' );
#6 = DATE_TIME_ROLE( 'classification_date' );
#7 = PERSON_AND_ORGANIZATION_ROLE( 'creator' );
#8 = PERSON_AND_ORGANIZATION_ROLE( 'design_supplier' );
#9 = PERSON_AND_ORGANIZATION_ROLE( 'classification_officer' );
#10 = PERSON_AND_ORGANIZATION_ROLE( 'design_owner' );
#11 = APPROVAL_PERSON_ORGANIZATION( #76, #77, #78 );
#12 = APPROVAL_DATE_TIME( #4, #77 );
#13 = CC_DESIGN_APPROVAL( #77, ( #79, #80, #81 ) );
#14 = CC_DESIGN_DATE_AND_TIME_ASSIGNMENT( #4, #5, ( #81 ) );
#15 = CC_DESIGN_DATE_AND_TIME_ASSIGNMENT( #4, #6, ( #79 ) );
#16 = CC_DESIGN_PERSON_AND_ORGANIZATION_ASSIGNMENT( #76, #10, ( #82 ) );
#17 = CC_DESIGN_PERSON_AND_ORGANIZATION_ASSIGNMENT( #76, #7, ( #81 ) );
#18 = CC_DESIGN_PERSON_AND_ORGANIZATION_ASSIGNMENT( #76, #7, ( #80 ) );
#19 = CC_DESIGN_PERSON_AND_ORGANIZATION_ASSIGNMENT( #76, #8, ( #80 ) );
#20 = CC_DESIGN_SECURITY_CLASSIFICATION( #79, ( #80 ) );
#21 = CC_DESIGN_PERSON_AND_ORGANIZATION_ASSIGNMENT( #76, #9, ( #79 ) );
#22 = SHAPE_DEFINITION_REPRESENTATION( #83, #84 );
#23 = DESIGN_CONTEXT( '', #85, 'design' );
#24 = APPLICATION_PROTOCOL_DEFINITION( 'INTERNATIONAL STANDARD', 'config_control_design', 1994, #85 );
#25 = PRODUCT_CATEGORY_RELATIONSHIP( 'NONE', 'NONE', #86, #87 );
#26 = DATE_AND_TIME( #88, #89 );
#27 = DATE_TIME_ROLE( 'creation_date' );
#28 = DATE_TIME_ROLE( 'classification_date' );
#29 = PERSON_AND_ORGANIZATION_ROLE( 'creator' );
#30 = PERSON_AND_ORGANIZATION_ROLE( 'design_supplier' );
#31 = PERSON_AND_ORGANIZATION_ROLE( 'classification_officer' );
#32 = PERSON_AND_ORGANIZATION_ROLE( 'design_owner' );
#33 = APPROVAL_PERSON_ORGANIZATION( #90, #91, #92 );
#34 = APPROVAL_DATE_TIME( #26, #91 );
#35 = CC_DESIGN_APPROVAL( #91, ( #93, #94, #95 ) );
#36 = CC_DESIGN_DATE_AND_TIME_ASSIGNMENT( #26, #27, ( #95 ) );
#37 = CC_DESIGN_DATE_AND_TIME_ASSIGNMENT( #26, #28, ( #93 ) );
#38 = CC_DESIGN_PERSON_AND_ORGANIZATION_ASSIGNMENT( #90, #32, ( #96 ) );
#39 = CC_DESIGN_PERSON_AND_ORGANIZATION_ASSIGNMENT( #90, #29, ( #95 ) );
#40 = CC_DESIGN_PERSON_AND_ORGANIZATION_ASSIGNMENT( #90, #29, ( #94 ) );
#41 = CC_DESIGN_PERSON_AND_ORGANIZATION_ASSIGNMENT( #90, #30, ( #94 ) );
#42 = CC_DESIGN_SECURITY_CLASSIFICATION( #93, ( #94 ) );
#43 = CC_DESIGN_PERSON_AND_ORGANIZATION_ASSIGNMENT( #90, #31, ( #93 ) );
#44 = SHAPE_DEFINITION_REPRESENTATION( #97, #98 );
#45 = DESIGN_CONTEXT( '', #99, 'design' );
#46 = APPLICATION_PROTOCOL_DEFINITION( 'INTERNATIONAL STANDARD', 'config_control_design', 1994, #99 );
#47 = PRODUCT_CATEGORY_RELATIONSHIP( 'NONE', 'NONE', #100, #101 );
#48 = DATE_AND_TIME( #102, #103 );
#49 = DATE_TIME_ROLE( 'creation_date' );
#50 = DATE_TIME_ROLE( 'classification_date' );
#51 = PERSON_AND_ORGANIZATION_ROLE( 'creator' );
#52 = PERSON_AND_ORGANIZATION_ROLE( 'design_supplier' );
#53 = PERSON_AND_ORGANIZATION_ROLE( 'classification_officer' );
#54 = PERSON_AND_ORGANIZATION_ROLE( 'design_owner' );
#55 = APPROVAL_PERSON_ORGANIZATION( #104, #105, #106 );
#56 = APPROVAL_DATE_TIME( #48, #105 );
#57 = CC_DESIGN_APPROVAL( #105, ( #107, #108, #109 ) );
#58 = CC_DESIGN_DATE_AND_TIME_ASSIGNMENT( #48, #49, ( #109 ) );
#59 = CC_DESIGN_DATE_AND_TIME_ASSIGNMENT( #48, #50, ( #107 ) );
#60 = CC_DESIGN_PERSON_AND_ORGANIZATION_ASSIGNMENT( #104, #54, ( #110 ) );
#61 = CC_DESIGN_PERSON_AND_ORGANIZATION_ASSIGNMENT( #104, #51, ( #109 ) );
#62 = CC_DESIGN_PERSON_AND_ORGANIZATION_ASSIGNMENT( #104, #51, ( #108 ) );
#63 = CC_DESIGN_PERSON_AND_ORGANIZATION_ASSIGNMENT( #104, #52, ( #108 ) );
#64 = CC_DESIGN_SECURITY_CLASSIFICATION( #107, ( #108 ) );
#65 = CC_DESIGN_PERSON_AND_ORGANIZATION_ASSIGNMENT( #104, #53, ( #107 ) );
#66 = SHAPE_DEFINITION_REPRESENTATION( #111, #112 );
#67 =  ( GEOMETRIC_REPRESENTATION_CONTEXT( 3 )GLOBAL_UNCERTAINTY_ASSIGNED_CONTEXT( ( #115 ) )GLOBAL_UNIT_ASSIGNED_CONTEXT( ( #117, #118, #119 ) )REPRESENTATION_CONTEXT( 'NONE', 'WORKSPACE' ) );
#71 = APPLICATION_CONTEXT( 'CONFIGURATION CONTROLLED 3D DESIGNS OF MECHANICAL PARTS AND ASSEMBLIES' );
#72 = PRODUCT_CATEGORY( 'part', 'NONE' );
#73 = PRODUCT_RELATED_PRODUCT_CATEGORY( 'detail', ' ', ( #82 ) );
#74 = CALENDAR_DATE( 2009, 10, 10 );
#75 = LOCAL_TIME( 14, 37, 43.0000000000000, #121 );
#76 = PERSON_AND_ORGANIZATION( #122, #123 );
#77 = APPROVAL( #124, 'SOLID MODEL' );
#78 = APPROVAL_ROLE( 'APPROVED' );
#79 = SECURITY_CLASSIFICATION( '', '', #125 );
#80 = PRODUCT_DEFINITION_FORMATION_WITH_SPECIFIED_SOURCE( ' ', 'NONE', #82, .NOT_KNOWN. );
#81 = PRODUCT_DEFINITION( 'NONE', 'NONE', #80, #1 );
#82 = PRODUCT( 'Assem1', 'Assem1', 'PART-Assem1-DESC', ( #126 ) );
#83 = PRODUCT_DEFINITION_SHAPE( 'NONE', 'NONE', #81 );
#84 = ADVANCED_BREP_SHAPE_REPRESENTATION( 'Assem1', ( #127, #128, #129 ), #67 );
#85 = APPLICATION_CONTEXT( 'CONFIGURATION CONTROLLED 3D DESIGNS OF MECHANICAL PARTS AND ASSEMBLIES' );
#86 = PRODUCT_CATEGORY( 'part', 'NONE' );
#87 = PRODUCT_RELATED_PRODUCT_CATEGORY( 'detail', ' ', ( #96 ) );
#88 = CALENDAR_DATE( 2009, 10, 10 );
#89 = LOCAL_TIME( 14, 37, 43.0000000000000, #130 );
#90 = PERSON_AND_ORGANIZATION( #131, #132 );
#91 = APPROVAL( #133, 'SOLID MODEL' );
#92 = APPROVAL_ROLE( 'APPROVED' );
#93 = SECURITY_CLASSIFICATION( '', '', #134 );
#94 = PRODUCT_DEFINITION_FORMATION_WITH_SPECIFIED_SOURCE( ' ', 'NONE', #96, .NOT_KNOWN. );
#95 = PRODUCT_DEFINITION( 'NONE', 'NONE', #94, #23 );
#96 = PRODUCT( '1', '1', 'PART-1-DESC', ( #135 ) );
#97 = PRODUCT_DEFINITION_SHAPE( 'NONE', 'NONE', #95 );
#98 = ADVANCED_BREP_SHAPE_REPRESENTATION( '1', ( #136 ), #67 );
#99 = APPLICATION_CONTEXT( 'CONFIGURATION CONTROLLED 3D DESIGNS OF MECHANICAL PARTS AND ASSEMBLIES' );
#100 = PRODUCT_CATEGORY( 'part', 'NONE' );
#101 = PRODUCT_RELATED_PRODUCT_CATEGORY( 'detail', ' ', ( #110 ) );
#102 = CALENDAR_DATE( 2009, 10, 10 );
#103 = LOCAL_TIME( 14, 37, 43.0000000000000, #137 );
#104 = PERSON_AND_ORGANIZATION( #138, #139 );
#105 = APPROVAL( #140, 'SOLID MODEL' );
#106 = APPROVAL_ROLE( 'APPROVED' );
#107 = SECURITY_CLASSIFICATION( '', '', #141 );
#108 = PRODUCT_DEFINITION_FORMATION_WITH_SPECIFIED_SOURCE( ' ', 'NONE', #110, .NOT_KNOWN. );
#109 = PRODUCT_DEFINITION( 'NONE', 'NONE', #108, #45 );
#110 = PRODUCT( '2', '2', 'PART-2-DESC', ( #142 ) );
#111 = PRODUCT_DEFINITION_SHAPE( 'NONE', 'NONE', #109 );
#112 = ADVANCED_BREP_SHAPE_REPRESENTATION( '2', ( #143 ), #67 );
#115 = UNCERTAINTY_MEASURE_WITH_UNIT( LENGTH_MEASURE( 0.00100000000000000 ), #117, '', '' );
#117 =  ( CONVERSION_BASED_UNIT( 'MILLIMETRE', #146 )LENGTH_UNIT(  )NAMED_UNIT( #149 ) );
#118 =  ( NAMED_UNIT( #151 )PLANE_ANGLE_UNIT(  )SI_UNIT( $, .RADIAN. ) );
#119 =  ( NAMED_UNIT( #151 )SOLID_ANGLE_UNIT(  )SI_UNIT( $, .STERADIAN. ) );
#121 = COORDINATED_UNIVERSAL_TIME_OFFSET( 8, 0, .AHEAD. );
#122 = PERSON( '', 'UNSPECIFIED', $, $, $, $ );
#123 = ORGANIZATION( 'UNSPECIFIED', 'UNSPECIFIED', 'UNSPECIFIED' );
#124 = APPROVAL_STATUS( 'approved' );
#125 = SECURITY_CLASSIFICATION_LEVEL( 'unclassified' );
#126 = MECHANICAL_CONTEXT( '', #71, 'mechanical' );
#127 = MAPPED_ITEM( '', #157, #158 );
#128 = MAPPED_ITEM( '', #159, #160 );
#129 = AXIS2_PLACEMENT_3D( '', #161, #162, #163 );
#130 = COORDINATED_UNIVERSAL_TIME_OFFSET( 8, 0, .AHEAD. );
#131 = PERSON( '', 'UNSPECIFIED', $, $, $, $ );
#132 = ORGANIZATION( 'UNSPECIFIED', 'UNSPECIFIED', 'UNSPECIFIED' );
#133 = APPROVAL_STATUS( 'approved' );
#134 = SECURITY_CLASSIFICATION_LEVEL( 'unclassified' );
#135 = MECHANICAL_CONTEXT( '', #85, 'mechanical' );
#136 = MANIFOLD_SOLID_BREP( '1', #164 );
#137 = COORDINATED_UNIVERSAL_TIME_OFFSET( 8, 0, .AHEAD. );
#138 = PERSON( '', 'UNSPECIFIED', $, $, $, $ );
#139 = ORGANIZATION( 'UNSPECIFIED', 'UNSPECIFIED', 'UNSPECIFIED' );
#140 = APPROVAL_STATUS( 'approved' );
#141 = SECURITY_CLASSIFICATION_LEVEL( 'unclassified' );
#142 = MECHANICAL_CONTEXT( '', #99, 'mechanical' );
#143 = MANIFOLD_SOLID_BREP( '2', #165 );
#146 = LENGTH_MEASURE_WITH_UNIT( LENGTH_MEASURE( 1.00000000000000 ), #166 );
#149 = DIMENSIONAL_EXPONENTS( 1.00000000000000, 0.000000000000000, 0.000000000000000, 0.000000000000000, 0.000000000000000, 0.000000000000000, 0.000000000000000 );
#151 = DIMENSIONAL_EXPONENTS( 0.000000000000000, 0.000000000000000, 0.000000000000000, 0.000000000000000, 0.000000000000000, 0.000000000000000, 0.000000000000000 );
#157 = REPRESENTATION_MAP( #129, #98 );
#158 = AXIS2_PLACEMENT_3D( '', #167, #168, #169 );
#159 = REPRESENTATION_MAP( #129, #112 );
#160 = AXIS2_PLACEMENT_3D( '', #170, #171, #172 );
#161 = CARTESIAN_POINT( '', ( 0.000000000000000, 0.000000000000000, 0.000000000000000 ) );
#162 = DIRECTION( '', ( 0.000000000000000, 0.000000000000000, 1.00000000000000 ) );
#163 = DIRECTION( '', ( 1.00000000000000, 0.000000000000000, 0.000000000000000 ) );
#164 = CLOSED_SHELL( '', ( #173, #174, #175, #176, #177, #178 ) );
#165 = CLOSED_SHELL( '', ( #179, #180, #181, #182, #183, #184, #185, #186, #187 ) );
#166 =  ( NAMED_UNIT( #149 )LENGTH_UNIT(  )SI_UNIT( .MILLI., .METRE. ) );
#167 = CARTESIAN_POINT( '', ( 0.000000000000000, 0.000000000000000, 0.000000000000000 ) );
#168 = DIRECTION( '', ( 0.000000000000000, 0.000000000000000, 1.00000000000000 ) );
#169 = DIRECTION( '', ( 1.00000000000000, 0.000000000000000, 0.000000000000000 ) );
#170 = CARTESIAN_POINT( '', ( -1.76780292283288E-014, 7.26968837246798E-015, -4.36243701337441 ) );
#171 = DIRECTION( '', ( 0.000000000000000, 0.000000000000000, 1.00000000000000 ) );
#172 = DIRECTION( '', ( 1.00000000000000, 0.000000000000000, 0.000000000000000 ) );
#173 = ADVANCED_FACE( '', ( #189, #190 ), #191, .T. );
#174 = ADVANCED_FACE( '', ( #192, #193 ), #194, .T. );
#175 = ADVANCED_FACE( '', ( #195, #196 ), #197, .F. );
#176 = ADVANCED_FACE( '', ( #198, #199 ), #200, .F. );
#177 = ADVANCED_FACE( '', ( #201, #202 ), #203, .T. );
#178 = ADVANCED_FACE( '', ( #204, #205 ), #206, .T. );
#179 = ADVANCED_FACE( '', ( #207, #208 ), #209, .F. );
#180 = ADVANCED_FACE( '', ( #210, #211 ), #212, .T. );
#181 = ADVANCED_FACE( '', ( #213, #214 ), #215, .T. );
#182 = ADVANCED_FACE( '', ( #216, #217 ), #218, .T. );
#183 = ADVANCED_FACE( '', ( #219, #220 ), #221, .F. );
#184 = ADVANCED_FACE( '', ( #222, #223 ), #224, .F. );
#185 = ADVANCED_FACE( '', ( #225, #226 ), #227, .F. );
#186 = ADVANCED_FACE( '', ( #228, #229 ), #230, .T. );
#187 = ADVANCED_FACE( '', ( #231, #232 ), #233, .T. );
#189 = FACE_OUTER_BOUND( '', #234, .T. );
#190 = FACE_BOUND( '', #235, .T. );
#191 = PLANE( '', #236 );
#192 = FACE_OUTER_BOUND( '', #237, .T. );
#193 = FACE_OUTER_BOUND( '', #238, .T. );
#194 = SPHERICAL_SURFACE( '', #239, 40.0000000000000 );
#195 = FACE_OUTER_BOUND( '', #240, .T. );
#196 = FACE_OUTER_BOUND( '', #241, .T. );
#197 = CYLINDRICAL_SURFACE( '', #242, 7.50000000000000 );
#198 = FACE_BOUND( '', #243, .T. );
#199 = FACE_OUTER_BOUND( '', #244, .T. );
#200 = CONICAL_SURFACE( '', #245, 8.00000000000000, 0.785398163397448 );
#201 = FACE_OUTER_BOUND( '', #246, .T. );
#202 = FACE_OUTER_BOUND( '', #247, .T. );
#203 = TOROIDAL_SURFACE( '', #248, 13.8000000000000, 0.200000000000000 );
#204 = FACE_OUTER_BOUND( '', #249, .T. );
#205 = FACE_OUTER_BOUND( '', #250, .T. );
#206 = CYLINDRICAL_SURFACE( '', #251, 14.0000000000000 );
#207 = FACE_OUTER_BOUND( '', #252, .T. );
#208 = FACE_OUTER_BOUND( '', #253, .T. );
#209 = SPHERICAL_SURFACE( '', #254, 40.0000000000000 );
#210 = FACE_OUTER_BOUND( '', #255, .T. );
#211 = FACE_BOUND( '', #256, .T. );
#212 = PLANE( '', #257 );
#213 = FACE_OUTER_BOUND( '', #258, .T. );
#214 = FACE_OUTER_BOUND( '', #259, .T. );
#215 = CYLINDRICAL_SURFACE( '', #260, 14.0000000000000 );
#216 = FACE_BOUND( '', #261, .T. );
#217 = FACE_OUTER_BOUND( '', #262, .T. );
#218 = PLANE( '', #263 );
#219 = FACE_OUTER_BOUND( '', #264, .T. );
#220 = FACE_OUTER_BOUND( '', #265, .T. );
#221 = CYLINDRICAL_SURFACE( '', #266, 8.00000000000000 );
#222 = FACE_BOUND( '', #267, .T. );
#223 = FACE_OUTER_BOUND( '', #268, .T. );
#224 = CONICAL_SURFACE( '', #269, 8.48251103708095, 0.678555532583633 );
#225 = FACE_BOUND( '', #270, .T. );
#226 = FACE_OUTER_BOUND( '', #271, .T. );
#227 = CONICAL_SURFACE( '', #272, 8.50000000000000, 0.785398163397448 );
#228 = FACE_OUTER_BOUND( '', #273, .T. );
#229 = FACE_OUTER_BOUND( '', #274, .T. );
#230 = TOROIDAL_SURFACE( '', #275, 13.8000000000000, 0.200000000000000 );
#231 = FACE_OUTER_BOUND( '', #276, .T. );
#232 = FACE_OUTER_BOUND( '', #277, .T. );
#233 = TOROIDAL_SURFACE( '', #278, 13.8000000000000, 0.200000000000000 );
#234 = EDGE_LOOP( '', ( #279 ) );
#235 = EDGE_LOOP( '', ( #280 ) );
#236 = AXIS2_PLACEMENT_3D( '', #281, #282, #283 );
#237 = EDGE_LOOP( '', ( #284 ) );
#238 = EDGE_LOOP( '', ( #285 ) );
#239 = AXIS2_PLACEMENT_3D( '', #286, #287, #288 );
#240 = EDGE_LOOP( '', ( #289 ) );
#241 = EDGE_LOOP( '', ( #290 ) );
#242 = AXIS2_PLACEMENT_3D( '', #291, #292, #293 );
#243 = EDGE_LOOP( '', ( #294 ) );
#244 = EDGE_LOOP( '', ( #295 ) );
#245 = AXIS2_PLACEMENT_3D( '', #296, #297, #298 );
#246 = EDGE_LOOP( '', ( #299 ) );
#247 = EDGE_LOOP( '', ( #300 ) );
#248 = AXIS2_PLACEMENT_3D( '', #301, #302, #303 );
#249 = EDGE_LOOP( '', ( #304 ) );
#250 = EDGE_LOOP( '', ( #305 ) );
#251 = AXIS2_PLACEMENT_3D( '', #306, #307, #308 );
#252 = EDGE_LOOP( '', ( #309 ) );
#253 = EDGE_LOOP( '', ( #310 ) );
#254 = AXIS2_PLACEMENT_3D( '', #311, #312, #313 );
#255 = EDGE_LOOP( '', ( #314 ) );
#256 = EDGE_LOOP( '', ( #315 ) );
#257 = AXIS2_PLACEMENT_3D( '', #316, #317, #318 );
#258 = EDGE_LOOP( '', ( #319 ) );
#259 = EDGE_LOOP( '', ( #320 ) );
#260 = AXIS2_PLACEMENT_3D( '', #321, #322, #323 );
#261 = EDGE_LOOP( '', ( #324 ) );
#262 = EDGE_LOOP( '', ( #325 ) );
#263 = AXIS2_PLACEMENT_3D( '', #326, #327, #328 );
#264 = EDGE_LOOP( '', ( #329 ) );
#265 = EDGE_LOOP( '', ( #330 ) );
#266 = AXIS2_PLACEMENT_3D( '', #331, #332, #333 );
#267 = EDGE_LOOP( '', ( #334 ) );
#268 = EDGE_LOOP( '', ( #335 ) );
#269 = AXIS2_PLACEMENT_3D( '', #336, #337, #338 );
#270 = EDGE_LOOP( '', ( #339 ) );
#271 = EDGE_LOOP( '', ( #340 ) );
#272 = AXIS2_PLACEMENT_3D( '', #341, #342, #343 );
#273 = EDGE_LOOP( '', ( #344 ) );
#274 = EDGE_LOOP( '', ( #345 ) );
#275 = AXIS2_PLACEMENT_3D( '', #346, #347, #348 );
#276 = EDGE_LOOP( '', ( #349 ) );
#277 = EDGE_LOOP( '', ( #350 ) );
#278 = AXIS2_PLACEMENT_3D( '', #351, #352, #353 );
#279 = ORIENTED_EDGE( '', *, *, #354, .T. );
#280 = ORIENTED_EDGE( '', *, *, #355, .T. );
#281 = CARTESIAN_POINT( '', ( -5.44933542676809E-015, 0.000000000000000, 4.50000000000000 ) );
#282 = DIRECTION( '', ( 0.000000000000000, 0.000000000000000, 1.00000000000000 ) );
#283 = DIRECTION( '', ( 1.00000000000000, 0.000000000000000, 0.000000000000000 ) );
#284 = ORIENTED_EDGE( '', *, *, #356, .T. );
#285 = ORIENTED_EDGE( '', *, *, #357, .F. );
#286 = CARTESIAN_POINT( '', ( -1.04083408558608E-014, 0.000000000000000, 39.2905841137543 ) );
#287 = DIRECTION( '', ( 0.000000000000000, 0.000000000000000, 1.00000000000000 ) );
#288 = DIRECTION( '', ( 1.00000000000000, 0.000000000000000, 0.000000000000000 ) );
#289 = ORIENTED_EDGE( '', *, *, #358, .T. );
#290 = ORIENTED_EDGE( '', *, *, #356, .F. );
#291 = CARTESIAN_POINT( '', ( 0.000000000000000, 0.000000000000000, 39.8528543519784 ) );
#292 = DIRECTION( '', ( -0.000000000000000, -0.000000000000000, 1.00000000000000 ) );
#293 = DIRECTION( '', ( -1.00000000000000, 0.000000000000000, 0.000000000000000 ) );
#294 = ORIENTED_EDGE( '', *, *, #358, .F. );
#295 = ORIENTED_EDGE( '', *, *, #355, .F. );
#296 = CARTESIAN_POINT( '', ( 0.000000000000000, 0.000000000000000, 4.50000000000000 ) );
#297 = DIRECTION( '', ( -0.000000000000000, -0.000000000000000, 1.00000000000000 ) );
#298 = DIRECTION( '', ( 1.00000000000000, 0.000000000000000, 0.000000000000000 ) );
#299 = ORIENTED_EDGE( '', *, *, #359, .F. );
#300 = ORIENTED_EDGE( '', *, *, #354, .F. );
#301 = CARTESIAN_POINT( '', ( 0.000000000000000, 0.000000000000000, 4.30000000000000 ) );
#302 = DIRECTION( '', ( 0.000000000000000, 0.000000000000000, 1.00000000000000 ) );
#303 = DIRECTION( '', ( 1.00000000000000, 0.000000000000000, 0.000000000000000 ) );
#304 = ORIENTED_EDGE( '', *, *, #359, .T. );
#305 = ORIENTED_EDGE( '', *, *, #357, .T. );
#306 = CARTESIAN_POINT( '', ( 0.000000000000000, 0.000000000000000, 54.0000000000000 ) );
#307 = DIRECTION( '', ( -0.000000000000000, -0.000000000000000, -1.00000000000000 ) );
#308 = DIRECTION( '', ( 1.00000000000000, 0.000000000000000, 0.000000000000000 ) );
#309 = ORIENTED_EDGE( '', *, *, #360, .T. );
#310 = ORIENTED_EDGE( '', *, *, #361, .T. );
#311 = CARTESIAN_POINT( '', ( 0.000000000000000, 0.000000000000000, 43.6530211271287 ) );
#312 = DIRECTION( '', ( 0.000000000000000, 0.000000000000000, 1.00000000000000 ) );
#313 = DIRECTION( '', ( 1.00000000000000, 0.000000000000000, 0.000000000000000 ) );
#314 = ORIENTED_EDGE( '', *, *, #362, .T. );
#315 = ORIENTED_EDGE( '', *, *, #361, .F. );
#316 = CARTESIAN_POINT( '', ( 13.5000000000000, 0.000000000000000, 6.00000000000000 ) );
#317 = DIRECTION( '', ( 0.000000000000000, 0.000000000000000, 1.00000000000000 ) );
#318 = DIRECTION( '', ( 1.00000000000000, 0.000000000000000, 0.000000000000000 ) );
#319 = ORIENTED_EDGE( '', *, *, #363, .T. );
#320 = ORIENTED_EDGE( '', *, *, #364, .T. );
#321 = CARTESIAN_POINT( '', ( 0.000000000000000, 0.000000000000000, 54.0000000000000 ) );
#322 = DIRECTION( '', ( -0.000000000000000, -0.000000000000000, -1.00000000000000 ) );
#323 = DIRECTION( '', ( 1.00000000000000, 0.000000000000000, 0.000000000000000 ) );
#324 = ORIENTED_EDGE( '', *, *, #365, .T. );
#325 = ORIENTED_EDGE( '', *, *, #366, .T. );
#326 = CARTESIAN_POINT( '', ( 14.0000000000000, 0.000000000000000, 7.57694688241495E-015 ) );
#327 = DIRECTION( '', ( 0.000000000000000, 0.000000000000000, -1.00000000000000 ) );
#328 = DIRECTION( '', ( -1.00000000000000, 0.000000000000000, 0.000000000000000 ) );
#329 = ORIENTED_EDGE( '', *, *, #367, .T. );
#330 = ORIENTED_EDGE( '', *, *, #368, .T. );
#331 = CARTESIAN_POINT( '', ( 0.000000000000000, 0.000000000000000, 40.0499687890015 ) );
#332 = DIRECTION( '', ( -0.000000000000000, -0.000000000000000, 1.00000000000000 ) );
#333 = DIRECTION( '', ( -1.00000000000000, 0.000000000000000, 0.000000000000000 ) );
#334 = ORIENTED_EDGE( '', *, *, #367, .F. );
#335 = ORIENTED_EDGE( '', *, *, #360, .F. );
#336 = CARTESIAN_POINT( '', ( 0.000000000000000, 0.000000000000000, 4.56277929485296 ) );
#337 = DIRECTION( '', ( -0.000000000000000, -0.000000000000000, 1.00000000000000 ) );
#338 = DIRECTION( '', ( 1.00000000000000, 0.000000000000000, 0.000000000000000 ) );
#339 = ORIENTED_EDGE( '', *, *, #368, .F. );
#340 = ORIENTED_EDGE( '', *, *, #365, .F. );
#341 = CARTESIAN_POINT( '', ( 0.000000000000000, 0.000000000000000, 6.93889390390723E-015 ) );
#342 = DIRECTION( '', ( -0.000000000000000, 0.000000000000000, -1.00000000000000 ) );
#343 = DIRECTION( '', ( -1.00000000000000, 0.000000000000000, 0.000000000000000 ) );
#344 = ORIENTED_EDGE( '', *, *, #366, .F. );
#345 = ORIENTED_EDGE( '', *, *, #363, .F. );
#346 = CARTESIAN_POINT( '', ( 0.000000000000000, 0.000000000000000, 0.200000000000006 ) );
#347 = DIRECTION( '', ( 0.000000000000000, 0.000000000000000, -1.00000000000000 ) );
#348 = DIRECTION( '', ( -1.00000000000000, 0.000000000000000, 0.000000000000000 ) );
#349 = ORIENTED_EDGE( '', *, *, #364, .F. );
#350 = ORIENTED_EDGE( '', *, *, #362, .F. );
#351 = CARTESIAN_POINT( '', ( 0.000000000000000, 0.000000000000000, 5.80000000000000 ) );
#352 = DIRECTION( '', ( 0.000000000000000, 0.000000000000000, 1.00000000000000 ) );
#353 = DIRECTION( '', ( 1.00000000000000, 0.000000000000000, 0.000000000000000 ) );
#354 = EDGE_CURVE( '', #369, #369, #370, .T. );
#355 = EDGE_CURVE( '', #371, #371, #372, .F. );
#356 = EDGE_CURVE( '', #373, #373, #374, .T. );
#357 = EDGE_CURVE( '', #375, #375, #376, .T. );
#358 = EDGE_CURVE( '', #377, #377, #378, .T. );
#359 = EDGE_CURVE( '', #379, #379, #380, .F. );
#360 = EDGE_CURVE( '', #381, #381, #382, .F. );
#361 = EDGE_CURVE( '', #383, #383, #384, .T. );
#362 = EDGE_CURVE( '', #385, #385, #386, .T. );
#363 = EDGE_CURVE( '', #387, #387, #388, .F. );
#364 = EDGE_CURVE( '', #389, #389, #390, .F. );
#365 = EDGE_CURVE( '', #391, #391, #392, .F. );
#366 = EDGE_CURVE( '', #393, #393, #394, .T. );
#367 = EDGE_CURVE( '', #395, #395, #396, .T. );
#368 = EDGE_CURVE( '', #397, #397, #398, .T. );
#369 = VERTEX_POINT( '', #399 );
#370 = CIRCLE( '', #400, 13.8000000000000 );
#371 = VERTEX_POINT( '', #401 );
#372 = CIRCLE( '', #402, 8.00000000000000 );
#373 = VERTEX_POINT( '', #403 );
#374 = CIRCLE( '', #404, 7.50000000000000 );
#375 = VERTEX_POINT( '', #405 );
#376 = CIRCLE( '', #406, 14.0000000000000 );
#377 = VERTEX_POINT( '', #407 );
#378 = CIRCLE( '', #408, 7.50000000000000 );
#379 = VERTEX_POINT( '', #409 );
#380 = CIRCLE( '', #410, 14.0000000000000 );
#381 = VERTEX_POINT( '', #411 );
#382 = CIRCLE( '', #412, 8.48251103708095 );
#383 = VERTEX_POINT( '', #413 );
#384 = CIRCLE( '', #414, 13.5000000000000 );
#385 = VERTEX_POINT( '', #415 );
#386 = CIRCLE( '', #416, 13.8000000000000 );
#387 = VERTEX_POINT( '', #417 );
#388 = CIRCLE( '', #418, 14.0000000000000 );
#389 = VERTEX_POINT( '', #419 );
#390 = CIRCLE( '', #420, 14.0000000000000 );
#391 = VERTEX_POINT( '', #421 );
#392 = CIRCLE( '', #422, 8.50000000000000 );
#393 = VERTEX_POINT( '', #423 );
#394 = CIRCLE( '', #424, 13.8000000000000 );
#395 = VERTEX_POINT( '', #425 );
#396 = CIRCLE( '', #426, 8.00000000000000 );
#397 = VERTEX_POINT( '', #427 );
#398 = CIRCLE( '', #428, 8.00000000000000 );
#399 = CARTESIAN_POINT( '', ( 13.8000000000000, 0.000000000000000, 4.50000000000000 ) );
#400 = AXIS2_PLACEMENT_3D( '', #429, #430, #431 );
#401 = CARTESIAN_POINT( '', ( 8.00000000000000, 0.000000000000000, 4.50000000000000 ) );
#402 = AXIS2_PLACEMENT_3D( '', #432, #433, #434 );
#403 = CARTESIAN_POINT( '', ( 7.50000000000000, 0.000000000000000, 0.000000000000000 ) );
#404 = AXIS2_PLACEMENT_3D( '', #435, #436, #437 );
#405 = CARTESIAN_POINT( '', ( 14.0000000000000, 0.000000000000000, 1.82059612336389 ) );
#406 = AXIS2_PLACEMENT_3D( '', #438, #439, #440 );
#407 = CARTESIAN_POINT( '', ( 7.50000000000000, 0.000000000000000, 4.00000000000000 ) );
#408 = AXIS2_PLACEMENT_3D( '', #441, #442, #443 );
#409 = CARTESIAN_POINT( '', ( 14.0000000000000, 0.000000000000000, 4.30000000000000 ) );
#410 = AXIS2_PLACEMENT_3D( '', #444, #445, #446 );
#411 = CARTESIAN_POINT( '', ( 8.48251103708095, 0.000000000000000, 4.56277929485294 ) );
#412 = AXIS2_PLACEMENT_3D( '', #447, #448, #449 );
#413 = CARTESIAN_POINT( '', ( 13.5000000000000, 0.000000000000000, 6.00000000000000 ) );
#414 = AXIS2_PLACEMENT_3D( '', #450, #451, #452 );
#415 = CARTESIAN_POINT( '', ( 13.8000000000000, 0.000000000000000, 6.00000000000000 ) );
#416 = AXIS2_PLACEMENT_3D( '', #453, #454, #455 );
#417 = CARTESIAN_POINT( '', ( -14.0000000000000, 0.000000000000000, 0.200000000000006 ) );
#418 = AXIS2_PLACEMENT_3D( '', #456, #457, #458 );
#419 = CARTESIAN_POINT( '', ( 14.0000000000000, 0.000000000000000, 5.80000000000000 ) );
#420 = AXIS2_PLACEMENT_3D( '', #459, #460, #461 );
#421 = CARTESIAN_POINT( '', ( -8.50000000000000, 0.000000000000000, 7.57694688241495E-015 ) );
#422 = AXIS2_PLACEMENT_3D( '', #462, #463, #464 );
#423 = CARTESIAN_POINT( '', ( -13.8000000000000, 0.000000000000000, 7.58941520739853E-015 ) );
#424 = AXIS2_PLACEMENT_3D( '', #465, #466, #467 );
#425 = CARTESIAN_POINT( '', ( 8.00000000000000, 0.000000000000000, 3.96433462978375 ) );
#426 = AXIS2_PLACEMENT_3D( '', #468, #469, #470 );
#427 = CARTESIAN_POINT( '', ( -8.00000000000000, 0.000000000000000, 0.500000000000007 ) );
#428 = AXIS2_PLACEMENT_3D( '', #471, #472, #473 );
#429 = CARTESIAN_POINT( '', ( 0.000000000000000, 0.000000000000000, 4.50000000000000 ) );
#430 = DIRECTION( '', ( 0.000000000000000, 0.000000000000000, 1.00000000000000 ) );
#431 = DIRECTION( '', ( 1.00000000000000, 0.000000000000000, 0.000000000000000 ) );
#432 = CARTESIAN_POINT( '', ( 0.000000000000000, 0.000000000000000, 4.50000000000000 ) );
#433 = DIRECTION( '', ( 0.000000000000000, 0.000000000000000, 1.00000000000000 ) );
#434 = DIRECTION( '', ( 1.00000000000000, 0.000000000000000, 0.000000000000000 ) );
#435 = CARTESIAN_POINT( '', ( 0.000000000000000, 0.000000000000000, 0.000000000000000 ) );
#436 = DIRECTION( '', ( 0.000000000000000, 0.000000000000000, 1.00000000000000 ) );
#437 = DIRECTION( '', ( 1.00000000000000, 0.000000000000000, 0.000000000000000 ) );
#438 = CARTESIAN_POINT( '', ( 0.000000000000000, 0.000000000000000, 1.82059612336389 ) );
#439 = DIRECTION( '', ( 0.000000000000000, 0.000000000000000, 1.00000000000000 ) );
#440 = DIRECTION( '', ( 1.00000000000000, 0.000000000000000, 0.000000000000000 ) );
#441 = CARTESIAN_POINT( '', ( 0.000000000000000, 0.000000000000000, 4.00000000000000 ) );
#442 = DIRECTION( '', ( 0.000000000000000, 0.000000000000000, 1.00000000000000 ) );
#443 = DIRECTION( '', ( 1.00000000000000, 0.000000000000000, 0.000000000000000 ) );
#444 = CARTESIAN_POINT( '', ( 0.000000000000000, 0.000000000000000, 4.30000000000000 ) );
#445 = DIRECTION( '', ( 0.000000000000000, 0.000000000000000, 1.00000000000000 ) );
#446 = DIRECTION( '', ( 1.00000000000000, 0.000000000000000, 0.000000000000000 ) );
#447 = CARTESIAN_POINT( '', ( 0.000000000000000, 0.000000000000000, 4.56277929485294 ) );
#448 = DIRECTION( '', ( 0.000000000000000, 0.000000000000000, 1.00000000000000 ) );
#449 = DIRECTION( '', ( 1.00000000000000, 0.000000000000000, 0.000000000000000 ) );
#450 = CARTESIAN_POINT( '', ( 0.000000000000000, 0.000000000000000, 6.00000000000000 ) );
#451 = DIRECTION( '', ( 0.000000000000000, 0.000000000000000, 1.00000000000000 ) );
#452 = DIRECTION( '', ( 1.00000000000000, 0.000000000000000, 0.000000000000000 ) );
#453 = CARTESIAN_POINT( '', ( 0.000000000000000, 0.000000000000000, 6.00000000000000 ) );
#454 = DIRECTION( '', ( 0.000000000000000, 0.000000000000000, 1.00000000000000 ) );
#455 = DIRECTION( '', ( 1.00000000000000, 0.000000000000000, 0.000000000000000 ) );
#456 = CARTESIAN_POINT( '', ( 0.000000000000000, 0.000000000000000, 0.200000000000006 ) );
#457 = DIRECTION( '', ( 0.000000000000000, 0.000000000000000, -1.00000000000000 ) );
#458 = DIRECTION( '', ( -1.00000000000000, 0.000000000000000, 0.000000000000000 ) );
#459 = CARTESIAN_POINT( '', ( 0.000000000000000, 0.000000000000000, 5.80000000000000 ) );
#460 = DIRECTION( '', ( 0.000000000000000, 0.000000000000000, 1.00000000000000 ) );
#461 = DIRECTION( '', ( 1.00000000000000, 0.000000000000000, 0.000000000000000 ) );
#462 = CARTESIAN_POINT( '', ( 0.000000000000000, 0.000000000000000, 7.57694688241495E-015 ) );
#463 = DIRECTION( '', ( 0.000000000000000, 0.000000000000000, -1.00000000000000 ) );
#464 = DIRECTION( '', ( -1.00000000000000, 0.000000000000000, 0.000000000000000 ) );
#465 = CARTESIAN_POINT( '', ( 0.000000000000000, 0.000000000000000, 7.58941520739853E-015 ) );
#466 = DIRECTION( '', ( 0.000000000000000, 0.000000000000000, -1.00000000000000 ) );
#467 = DIRECTION( '', ( -1.00000000000000, 0.000000000000000, 0.000000000000000 ) );
#468 = CARTESIAN_POINT( '', ( 0.000000000000000, 0.000000000000000, 3.96433462978375 ) );
#469 = DIRECTION( '', ( 0.000000000000000, 0.000000000000000, 1.00000000000000 ) );
#470 = DIRECTION( '', ( 1.00000000000000, 0.000000000000000, 0.000000000000000 ) );
#471 = CARTESIAN_POINT( '', ( 0.000000000000000, 0.000000000000000, 0.500000000000007 ) );
#472 = DIRECTION( '', ( 0.000000000000000, 0.000000000000000, -1.00000000000000 ) );
#473 = DIRECTION( '', ( -1.00000000000000, 0.000000000000000, 0.000000000000000 ) );
ENDSEC;
END-ISO-10303-21;
