ISO-10303-21;
HEADER;
FILE_DESCRIPTION( ( 'Unknown' ), '1' );
FILE_NAME( 'S:/LEAVE 2D&3D CAD/LEAVE 3D-PAR/Metric/PT/PT25-3D/PT25-1632.stp', 'Unknown', ( 'Unknown' ), ( 'Unknown' ), 'XStep 1.0', 'Unknown', '  ' );
FILE_SCHEMA( ( 'CONFIG_CONTROL_DESIGN' ) );
ENDSEC;
DATA;
#1 = DESIGN_CONTEXT( '', #71, 'design' );
#2 = APPLICATION_PROTOCOL_DEFINITION( 'INTERNATIONAL STANDARD', 'config_control_design', 1994, #71 );
#3 = PRODUCT_CATEGORY_RELATIONSHIP( 'NONE', 'NONE', #72, #73 );
#4 = DATE_AND_TIME( #74, #75 );
#5 = DATE_TIME_ROLE( 'creation_date' );
#6 = DATE_TIME_ROLE( 'classification_date' );
#7 = PERSON_AND_ORGANIZATION_ROLE( 'creator' );
#8 = PERSON_AND_ORGANIZATION_ROLE( 'design_supplier' );
#9 = PERSON_AND_ORGANIZATION_ROLE( 'classification_officer' );
#10 = PERSON_AND_ORGANIZATION_ROLE( 'design_owner' );
#11 = APPROVAL_PERSON_ORGANIZATION( #76, #77, #78 );
#12 = APPROVAL_DATE_TIME( #4, #77 );
#13 = CC_DESIGN_APPROVAL( #77, ( #79, #80, #81 ) );
#14 = CC_DESIGN_DATE_AND_TIME_ASSIGNMENT( #4, #5, ( #81 ) );
#15 = CC_DESIGN_DATE_AND_TIME_ASSIGNMENT( #4, #6, ( #79 ) );
#16 = CC_DESIGN_PERSON_AND_ORGANIZATION_ASSIGNMENT( #76, #10, ( #82 ) );
#17 = CC_DESIGN_PERSON_AND_ORGANIZATION_ASSIGNMENT( #76, #7, ( #81 ) );
#18 = CC_DESIGN_PERSON_AND_ORGANIZATION_ASSIGNMENT( #76, #7, ( #80 ) );
#19 = CC_DESIGN_PERSON_AND_ORGANIZATION_ASSIGNMENT( #76, #8, ( #80 ) );
#20 = CC_DESIGN_SECURITY_CLASSIFICATION( #79, ( #80 ) );
#21 = CC_DESIGN_PERSON_AND_ORGANIZATION_ASSIGNMENT( #76, #9, ( #79 ) );
#22 = SHAPE_DEFINITION_REPRESENTATION( #83, #84 );
#23 = DESIGN_CONTEXT( '', #85, 'design' );
#24 = APPLICATION_PROTOCOL_DEFINITION( 'INTERNATIONAL STANDARD', 'config_control_design', 1994, #85 );
#25 = PRODUCT_CATEGORY_RELATIONSHIP( 'NONE', 'NONE', #86, #87 );
#26 = DATE_AND_TIME( #88, #89 );
#27 = DATE_TIME_ROLE( 'creation_date' );
#28 = DATE_TIME_ROLE( 'classification_date' );
#29 = PERSON_AND_ORGANIZATION_ROLE( 'creator' );
#30 = PERSON_AND_ORGANIZATION_ROLE( 'design_supplier' );
#31 = PERSON_AND_ORGANIZATION_ROLE( 'classification_officer' );
#32 = PERSON_AND_ORGANIZATION_ROLE( 'design_owner' );
#33 = APPROVAL_PERSON_ORGANIZATION( #90, #91, #92 );
#34 = APPROVAL_DATE_TIME( #26, #91 );
#35 = CC_DESIGN_APPROVAL( #91, ( #93, #94, #95 ) );
#36 = CC_DESIGN_DATE_AND_TIME_ASSIGNMENT( #26, #27, ( #95 ) );
#37 = CC_DESIGN_DATE_AND_TIME_ASSIGNMENT( #26, #28, ( #93 ) );
#38 = CC_DESIGN_PERSON_AND_ORGANIZATION_ASSIGNMENT( #90, #32, ( #96 ) );
#39 = CC_DESIGN_PERSON_AND_ORGANIZATION_ASSIGNMENT( #90, #29, ( #95 ) );
#40 = CC_DESIGN_PERSON_AND_ORGANIZATION_ASSIGNMENT( #90, #29, ( #94 ) );
#41 = CC_DESIGN_PERSON_AND_ORGANIZATION_ASSIGNMENT( #90, #30, ( #94 ) );
#42 = CC_DESIGN_SECURITY_CLASSIFICATION( #93, ( #94 ) );
#43 = CC_DESIGN_PERSON_AND_ORGANIZATION_ASSIGNMENT( #90, #31, ( #93 ) );
#44 = SHAPE_DEFINITION_REPRESENTATION( #97, #98 );
#45 = DESIGN_CONTEXT( '', #99, 'design' );
#46 = APPLICATION_PROTOCOL_DEFINITION( 'INTERNATIONAL STANDARD', 'config_control_design', 1994, #99 );
#47 = PRODUCT_CATEGORY_RELATIONSHIP( 'NONE', 'NONE', #100, #101 );
#48 = DATE_AND_TIME( #102, #103 );
#49 = DATE_TIME_ROLE( 'creation_date' );
#50 = DATE_TIME_ROLE( 'classification_date' );
#51 = PERSON_AND_ORGANIZATION_ROLE( 'creator' );
#52 = PERSON_AND_ORGANIZATION_ROLE( 'design_supplier' );
#53 = PERSON_AND_ORGANIZATION_ROLE( 'classification_officer' );
#54 = PERSON_AND_ORGANIZATION_ROLE( 'design_owner' );
#55 = APPROVAL_PERSON_ORGANIZATION( #104, #105, #106 );
#56 = APPROVAL_DATE_TIME( #48, #105 );
#57 = CC_DESIGN_APPROVAL( #105, ( #107, #108, #109 ) );
#58 = CC_DESIGN_DATE_AND_TIME_ASSIGNMENT( #48, #49, ( #109 ) );
#59 = CC_DESIGN_DATE_AND_TIME_ASSIGNMENT( #48, #50, ( #107 ) );
#60 = CC_DESIGN_PERSON_AND_ORGANIZATION_ASSIGNMENT( #104, #54, ( #110 ) );
#61 = CC_DESIGN_PERSON_AND_ORGANIZATION_ASSIGNMENT( #104, #51, ( #109 ) );
#62 = CC_DESIGN_PERSON_AND_ORGANIZATION_ASSIGNMENT( #104, #51, ( #108 ) );
#63 = CC_DESIGN_PERSON_AND_ORGANIZATION_ASSIGNMENT( #104, #52, ( #108 ) );
#64 = CC_DESIGN_SECURITY_CLASSIFICATION( #107, ( #108 ) );
#65 = CC_DESIGN_PERSON_AND_ORGANIZATION_ASSIGNMENT( #104, #53, ( #107 ) );
#66 = SHAPE_DEFINITION_REPRESENTATION( #111, #112 );
#67 =  ( GEOMETRIC_REPRESENTATION_CONTEXT( 3 )GLOBAL_UNCERTAINTY_ASSIGNED_CONTEXT( ( #115 ) )GLOBAL_UNIT_ASSIGNED_CONTEXT( ( #117, #118, #119 ) )REPRESENTATION_CONTEXT( 'NONE', 'WORKSPACE' ) );
#71 = APPLICATION_CONTEXT( 'CONFIGURATION CONTROLLED 3D DESIGNS OF MECHANICAL PARTS AND ASSEMBLIES' );
#72 = PRODUCT_CATEGORY( 'part', 'NONE' );
#73 = PRODUCT_RELATED_PRODUCT_CATEGORY( 'detail', ' ', ( #82 ) );
#74 = CALENDAR_DATE( 2009, 10, 10 );
#75 = LOCAL_TIME( 14, 37, 55.0000000000000, #121 );
#76 = PERSON_AND_ORGANIZATION( #122, #123 );
#77 = APPROVAL( #124, 'SOLID MODEL' );
#78 = APPROVAL_ROLE( 'APPROVED' );
#79 = SECURITY_CLASSIFICATION( '', '', #125 );
#80 = PRODUCT_DEFINITION_FORMATION_WITH_SPECIFIED_SOURCE( ' ', 'NONE', #82, .NOT_KNOWN. );
#81 = PRODUCT_DEFINITION( 'NONE', 'NONE', #80, #1 );
#82 = PRODUCT( 'Assem1', 'Assem1', 'PART-Assem1-DESC', ( #126 ) );
#83 = PRODUCT_DEFINITION_SHAPE( 'NONE', 'NONE', #81 );
#84 = ADVANCED_BREP_SHAPE_REPRESENTATION( 'Assem1', ( #127, #128, #129 ), #67 );
#85 = APPLICATION_CONTEXT( 'CONFIGURATION CONTROLLED 3D DESIGNS OF MECHANICAL PARTS AND ASSEMBLIES' );
#86 = PRODUCT_CATEGORY( 'part', 'NONE' );
#87 = PRODUCT_RELATED_PRODUCT_CATEGORY( 'detail', ' ', ( #96 ) );
#88 = CALENDAR_DATE( 2009, 10, 10 );
#89 = LOCAL_TIME( 14, 37, 55.0000000000000, #130 );
#90 = PERSON_AND_ORGANIZATION( #131, #132 );
#91 = APPROVAL( #133, 'SOLID MODEL' );
#92 = APPROVAL_ROLE( 'APPROVED' );
#93 = SECURITY_CLASSIFICATION( '', '', #134 );
#94 = PRODUCT_DEFINITION_FORMATION_WITH_SPECIFIED_SOURCE( ' ', 'NONE', #96, .NOT_KNOWN. );
#95 = PRODUCT_DEFINITION( 'NONE', 'NONE', #94, #23 );
#96 = PRODUCT( '1', '1', 'PART-1-DESC', ( #135 ) );
#97 = PRODUCT_DEFINITION_SHAPE( 'NONE', 'NONE', #95 );
#98 = ADVANCED_BREP_SHAPE_REPRESENTATION( '1', ( #136 ), #67 );
#99 = APPLICATION_CONTEXT( 'CONFIGURATION CONTROLLED 3D DESIGNS OF MECHANICAL PARTS AND ASSEMBLIES' );
#100 = PRODUCT_CATEGORY( 'part', 'NONE' );
#101 = PRODUCT_RELATED_PRODUCT_CATEGORY( 'detail', ' ', ( #110 ) );
#102 = CALENDAR_DATE( 2009, 10, 10 );
#103 = LOCAL_TIME( 14, 37, 55.0000000000000, #137 );
#104 = PERSON_AND_ORGANIZATION( #138, #139 );
#105 = APPROVAL( #140, 'SOLID MODEL' );
#106 = APPROVAL_ROLE( 'APPROVED' );
#107 = SECURITY_CLASSIFICATION( '', '', #141 );
#108 = PRODUCT_DEFINITION_FORMATION_WITH_SPECIFIED_SOURCE( ' ', 'NONE', #110, .NOT_KNOWN. );
#109 = PRODUCT_DEFINITION( 'NONE', 'NONE', #108, #45 );
#110 = PRODUCT( '2', '2', 'PART-2-DESC', ( #142 ) );
#111 = PRODUCT_DEFINITION_SHAPE( 'NONE', 'NONE', #109 );
#112 = ADVANCED_BREP_SHAPE_REPRESENTATION( '2', ( #143 ), #67 );
#115 = UNCERTAINTY_MEASURE_WITH_UNIT( LENGTH_MEASURE( 0.00100000000000000 ), #117, '', '' );
#117 =  ( CONVERSION_BASED_UNIT( 'MILLIMETRE', #146 )LENGTH_UNIT(  )NAMED_UNIT( #149 ) );
#118 =  ( NAMED_UNIT( #151 )PLANE_ANGLE_UNIT(  )SI_UNIT( $, .RADIAN. ) );
#119 =  ( NAMED_UNIT( #151 )SOLID_ANGLE_UNIT(  )SI_UNIT( $, .STERADIAN. ) );
#121 = COORDINATED_UNIVERSAL_TIME_OFFSET( 8, 0, .AHEAD. );
#122 = PERSON( '', 'UNSPECIFIED', $, $, $, $ );
#123 = ORGANIZATION( 'UNSPECIFIED', 'UNSPECIFIED', 'UNSPECIFIED' );
#124 = APPROVAL_STATUS( 'approved' );
#125 = SECURITY_CLASSIFICATION_LEVEL( 'unclassified' );
#126 = MECHANICAL_CONTEXT( '', #71, 'mechanical' );
#127 = MAPPED_ITEM( '', #157, #158 );
#128 = MAPPED_ITEM( '', #159, #160 );
#129 = AXIS2_PLACEMENT_3D( '', #161, #162, #163 );
#130 = COORDINATED_UNIVERSAL_TIME_OFFSET( 8, 0, .AHEAD. );
#131 = PERSON( '', 'UNSPECIFIED', $, $, $, $ );
#132 = ORGANIZATION( 'UNSPECIFIED', 'UNSPECIFIED', 'UNSPECIFIED' );
#133 = APPROVAL_STATUS( 'approved' );
#134 = SECURITY_CLASSIFICATION_LEVEL( 'unclassified' );
#135 = MECHANICAL_CONTEXT( '', #85, 'mechanical' );
#136 = MANIFOLD_SOLID_BREP( '1', #164 );
#137 = COORDINATED_UNIVERSAL_TIME_OFFSET( 8, 0, .AHEAD. );
#138 = PERSON( '', 'UNSPECIFIED', $, $, $, $ );
#139 = ORGANIZATION( 'UNSPECIFIED', 'UNSPECIFIED', 'UNSPECIFIED' );
#140 = APPROVAL_STATUS( 'approved' );
#141 = SECURITY_CLASSIFICATION_LEVEL( 'unclassified' );
#142 = MECHANICAL_CONTEXT( '', #99, 'mechanical' );
#143 = MANIFOLD_SOLID_BREP( '2', #165 );
#146 = LENGTH_MEASURE_WITH_UNIT( LENGTH_MEASURE( 1.00000000000000 ), #166 );
#149 = DIMENSIONAL_EXPONENTS( 1.00000000000000, 0.000000000000000, 0.000000000000000, 0.000000000000000, 0.000000000000000, 0.000000000000000, 0.000000000000000 );
#151 = DIMENSIONAL_EXPONENTS( 0.000000000000000, 0.000000000000000, 0.000000000000000, 0.000000000000000, 0.000000000000000, 0.000000000000000, 0.000000000000000 );
#157 = REPRESENTATION_MAP( #129, #98 );
#158 = AXIS2_PLACEMENT_3D( '', #167, #168, #169 );
#159 = REPRESENTATION_MAP( #129, #112 );
#160 = AXIS2_PLACEMENT_3D( '', #170, #171, #172 );
#161 = CARTESIAN_POINT( '', ( 0.000000000000000, 0.000000000000000, 0.000000000000000 ) );
#162 = DIRECTION( '', ( 0.000000000000000, 0.000000000000000, 1.00000000000000 ) );
#163 = DIRECTION( '', ( 1.00000000000000, 0.000000000000000, 0.000000000000000 ) );
#164 = CLOSED_SHELL( '', ( #173, #174, #175, #176, #177, #178 ) );
#165 = CLOSED_SHELL( '', ( #179, #180, #181, #182, #183, #184, #185, #186 ) );
#166 =  ( NAMED_UNIT( #149 )LENGTH_UNIT(  )SI_UNIT( .MILLI., .METRE. ) );
#167 = CARTESIAN_POINT( '', ( 0.000000000000000, 0.000000000000000, 0.000000000000000 ) );
#168 = DIRECTION( '', ( 0.000000000000000, 0.000000000000000, 1.00000000000000 ) );
#169 = DIRECTION( '', ( 1.00000000000000, 0.000000000000000, 0.000000000000000 ) );
#170 = CARTESIAN_POINT( '', ( -1.93307490392003E-014, 7.18768470736265E-015, -4.07416289726057 ) );
#171 = DIRECTION( '', ( 0.000000000000000, 0.000000000000000, 1.00000000000000 ) );
#172 = DIRECTION( '', ( 1.00000000000000, 0.000000000000000, 0.000000000000000 ) );
#173 = ADVANCED_FACE( '', ( #188, #189 ), #190, .T. );
#174 = ADVANCED_FACE( '', ( #191, #192 ), #193, .T. );
#175 = ADVANCED_FACE( '', ( #194, #195 ), #196, .F. );
#176 = ADVANCED_FACE( '', ( #197, #198 ), #199, .F. );
#177 = ADVANCED_FACE( '', ( #200, #201 ), #202, .T. );
#178 = ADVANCED_FACE( '', ( #203, #204 ), #205, .T. );
#179 = ADVANCED_FACE( '', ( #206, #207 ), #208, .F. );
#180 = ADVANCED_FACE( '', ( #209, #210 ), #211, .F. );
#181 = ADVANCED_FACE( '', ( #212, #213 ), #214, .T. );
#182 = ADVANCED_FACE( '', ( #215, #216 ), #217, .T. );
#183 = ADVANCED_FACE( '', ( #218, #219 ), #220, .T. );
#184 = ADVANCED_FACE( '', ( #221, #222 ), #223, .F. );
#185 = ADVANCED_FACE( '', ( #224, #225 ), #226, .F. );
#186 = ADVANCED_FACE( '', ( #227, #228 ), #229, .T. );
#188 = FACE_OUTER_BOUND( '', #230, .T. );
#189 = FACE_BOUND( '', #231, .T. );
#190 = PLANE( '', #232 );
#191 = FACE_OUTER_BOUND( '', #233, .T. );
#192 = FACE_OUTER_BOUND( '', #234, .T. );
#193 = SPHERICAL_SURFACE( '', #235, 40.0000000000000 );
#194 = FACE_OUTER_BOUND( '', #236, .T. );
#195 = FACE_OUTER_BOUND( '', #237, .T. );
#196 = CYLINDRICAL_SURFACE( '', #238, 8.50000000000000 );
#197 = FACE_BOUND( '', #239, .T. );
#198 = FACE_OUTER_BOUND( '', #240, .T. );
#199 = CONICAL_SURFACE( '', #241, 9.00000000000000, 0.785398163397448 );
#200 = FACE_OUTER_BOUND( '', #242, .T. );
#201 = FACE_OUTER_BOUND( '', #243, .T. );
#202 = TOROIDAL_SURFACE( '', #244, 15.8000000000000, 0.200000000000000 );
#203 = FACE_OUTER_BOUND( '', #245, .T. );
#204 = FACE_OUTER_BOUND( '', #246, .T. );
#205 = CYLINDRICAL_SURFACE( '', #247, 16.0000000000000 );
#206 = FACE_OUTER_BOUND( '', #248, .T. );
#207 = FACE_OUTER_BOUND( '', #249, .T. );
#208 = SPHERICAL_SURFACE( '', #250, 40.0000000000000 );
#209 = FACE_BOUND( '', #251, .T. );
#210 = FACE_OUTER_BOUND( '', #252, .T. );
#211 = CONICAL_SURFACE( '', #253, 10.0000000000000, 0.785398163397455 );
#212 = FACE_OUTER_BOUND( '', #254, .T. );
#213 = FACE_OUTER_BOUND( '', #255, .T. );
#214 = CYLINDRICAL_SURFACE( '', #256, 16.0000000000000 );
#215 = FACE_OUTER_BOUND( '', #257, .T. );
#216 = FACE_OUTER_BOUND( '', #258, .T. );
#217 = TOROIDAL_SURFACE( '', #259, 15.8000000000000, 0.200000000000000 );
#218 = FACE_OUTER_BOUND( '', #260, .T. );
#219 = FACE_OUTER_BOUND( '', #261, .T. );
#220 = TOROIDAL_SURFACE( '', #262, 15.8000000000000, 0.200000000000000 );
#221 = FACE_OUTER_BOUND( '', #263, .T. );
#222 = FACE_OUTER_BOUND( '', #264, .T. );
#223 = CYLINDRICAL_SURFACE( '', #265, 9.50000000000000 );
#224 = FACE_BOUND( '', #266, .T. );
#225 = FACE_OUTER_BOUND( '', #267, .T. );
#226 = CONICAL_SURFACE( '', #268, 9.97808062884777, 0.659340993033646 );
#227 = FACE_BOUND( '', #269, .T. );
#228 = FACE_OUTER_BOUND( '', #270, .T. );
#229 = PLANE( '', #271 );
#230 = EDGE_LOOP( '', ( #272 ) );
#231 = EDGE_LOOP( '', ( #273 ) );
#232 = AXIS2_PLACEMENT_3D( '', #274, #275, #276 );
#233 = EDGE_LOOP( '', ( #277 ) );
#234 = EDGE_LOOP( '', ( #278 ) );
#235 = AXIS2_PLACEMENT_3D( '', #279, #280, #281 );
#236 = EDGE_LOOP( '', ( #282 ) );
#237 = EDGE_LOOP( '', ( #283 ) );
#238 = AXIS2_PLACEMENT_3D( '', #284, #285, #286 );
#239 = EDGE_LOOP( '', ( #287 ) );
#240 = EDGE_LOOP( '', ( #288 ) );
#241 = AXIS2_PLACEMENT_3D( '', #289, #290, #291 );
#242 = EDGE_LOOP( '', ( #292 ) );
#243 = EDGE_LOOP( '', ( #293 ) );
#244 = AXIS2_PLACEMENT_3D( '', #294, #295, #296 );
#245 = EDGE_LOOP( '', ( #297 ) );
#246 = EDGE_LOOP( '', ( #298 ) );
#247 = AXIS2_PLACEMENT_3D( '', #299, #300, #301 );
#248 = EDGE_LOOP( '', ( #302 ) );
#249 = EDGE_LOOP( '', ( #303 ) );
#250 = AXIS2_PLACEMENT_3D( '', #304, #305, #306 );
#251 = EDGE_LOOP( '', ( #307 ) );
#252 = EDGE_LOOP( '', ( #308 ) );
#253 = AXIS2_PLACEMENT_3D( '', #309, #310, #311 );
#254 = EDGE_LOOP( '', ( #312 ) );
#255 = EDGE_LOOP( '', ( #313 ) );
#256 = AXIS2_PLACEMENT_3D( '', #314, #315, #316 );
#257 = EDGE_LOOP( '', ( #317 ) );
#258 = EDGE_LOOP( '', ( #318 ) );
#259 = AXIS2_PLACEMENT_3D( '', #319, #320, #321 );
#260 = EDGE_LOOP( '', ( #322 ) );
#261 = EDGE_LOOP( '', ( #323 ) );
#262 = AXIS2_PLACEMENT_3D( '', #324, #325, #326 );
#263 = EDGE_LOOP( '', ( #327 ) );
#264 = EDGE_LOOP( '', ( #328 ) );
#265 = AXIS2_PLACEMENT_3D( '', #329, #330, #331 );
#266 = EDGE_LOOP( '', ( #332 ) );
#267 = EDGE_LOOP( '', ( #333 ) );
#268 = AXIS2_PLACEMENT_3D( '', #334, #335, #336 );
#269 = EDGE_LOOP( '', ( #337 ) );
#270 = EDGE_LOOP( '', ( #338 ) );
#271 = AXIS2_PLACEMENT_3D( '', #339, #340, #341 );
#272 = ORIENTED_EDGE( '', *, *, #342, .T. );
#273 = ORIENTED_EDGE( '', *, *, #343, .T. );
#274 = CARTESIAN_POINT( '', ( -5.44933542676809E-015, 0.000000000000000, 4.50000000000000 ) );
#275 = DIRECTION( '', ( 0.000000000000000, 0.000000000000000, 1.00000000000000 ) );
#276 = DIRECTION( '', ( 1.00000000000000, 0.000000000000000, 0.000000000000000 ) );
#277 = ORIENTED_EDGE( '', *, *, #344, .T. );
#278 = ORIENTED_EDGE( '', *, *, #345, .F. );
#279 = CARTESIAN_POINT( '', ( -1.21430643318376E-014, 0.000000000000000, 39.0864426623862 ) );
#280 = DIRECTION( '', ( 0.000000000000000, 0.000000000000000, 1.00000000000000 ) );
#281 = DIRECTION( '', ( 1.00000000000000, 0.000000000000000, 0.000000000000000 ) );
#282 = ORIENTED_EDGE( '', *, *, #346, .T. );
#283 = ORIENTED_EDGE( '', *, *, #344, .F. );
#284 = CARTESIAN_POINT( '', ( 0.000000000000000, 0.000000000000000, 45.4780166673966 ) );
#285 = DIRECTION( '', ( -0.000000000000000, -0.000000000000000, 1.00000000000000 ) );
#286 = DIRECTION( '', ( -1.00000000000000, 0.000000000000000, 0.000000000000000 ) );
#287 = ORIENTED_EDGE( '', *, *, #346, .F. );
#288 = ORIENTED_EDGE( '', *, *, #343, .F. );
#289 = CARTESIAN_POINT( '', ( 0.000000000000000, 0.000000000000000, 4.50000000000000 ) );
#290 = DIRECTION( '', ( -0.000000000000000, -0.000000000000000, 1.00000000000000 ) );
#291 = DIRECTION( '', ( 1.00000000000000, 0.000000000000000, 0.000000000000000 ) );
#292 = ORIENTED_EDGE( '', *, *, #347, .F. );
#293 = ORIENTED_EDGE( '', *, *, #342, .F. );
#294 = CARTESIAN_POINT( '', ( 0.000000000000000, 0.000000000000000, 4.30000000000000 ) );
#295 = DIRECTION( '', ( 0.000000000000000, 0.000000000000000, 1.00000000000000 ) );
#296 = DIRECTION( '', ( 1.00000000000000, 0.000000000000000, 0.000000000000000 ) );
#297 = ORIENTED_EDGE( '', *, *, #347, .T. );
#298 = ORIENTED_EDGE( '', *, *, #345, .T. );
#299 = CARTESIAN_POINT( '', ( 0.000000000000000, 0.000000000000000, 54.0000000000000 ) );
#300 = DIRECTION( '', ( -0.000000000000000, -0.000000000000000, -1.00000000000000 ) );
#301 = DIRECTION( '', ( 1.00000000000000, 0.000000000000000, 0.000000000000000 ) );
#302 = ORIENTED_EDGE( '', *, *, #348, .T. );
#303 = ORIENTED_EDGE( '', *, *, #349, .T. );
#304 = CARTESIAN_POINT( '', ( 0.000000000000000, 0.000000000000000, 43.1606055596467 ) );
#305 = DIRECTION( '', ( 0.000000000000000, 0.000000000000000, 1.00000000000000 ) );
#306 = DIRECTION( '', ( 1.00000000000000, 0.000000000000000, 0.000000000000000 ) );
#307 = ORIENTED_EDGE( '', *, *, #350, .F. );
#308 = ORIENTED_EDGE( '', *, *, #351, .F. );
#309 = CARTESIAN_POINT( '', ( 0.000000000000000, 0.000000000000000, 6.93889390390723E-015 ) );
#310 = DIRECTION( '', ( -0.000000000000000, 0.000000000000000, -1.00000000000000 ) );
#311 = DIRECTION( '', ( -1.00000000000000, 0.000000000000000, 0.000000000000000 ) );
#312 = ORIENTED_EDGE( '', *, *, #352, .T. );
#313 = ORIENTED_EDGE( '', *, *, #353, .T. );
#314 = CARTESIAN_POINT( '', ( 0.000000000000000, 0.000000000000000, 54.0000000000000 ) );
#315 = DIRECTION( '', ( -0.000000000000000, -0.000000000000000, -1.00000000000000 ) );
#316 = DIRECTION( '', ( 1.00000000000000, 0.000000000000000, 0.000000000000000 ) );
#317 = ORIENTED_EDGE( '', *, *, #354, .F. );
#318 = ORIENTED_EDGE( '', *, *, #353, .F. );
#319 = CARTESIAN_POINT( '', ( 0.000000000000000, 0.000000000000000, 0.200000000000006 ) );
#320 = DIRECTION( '', ( 0.000000000000000, 0.000000000000000, -1.00000000000000 ) );
#321 = DIRECTION( '', ( -1.00000000000000, 0.000000000000000, 0.000000000000000 ) );
#322 = ORIENTED_EDGE( '', *, *, #352, .F. );
#323 = ORIENTED_EDGE( '', *, *, #349, .F. );
#324 = CARTESIAN_POINT( '', ( 0.000000000000000, 0.000000000000000, 6.19575739277337 ) );
#325 = DIRECTION( '', ( 0.000000000000000, 0.000000000000000, 1.00000000000000 ) );
#326 = DIRECTION( '', ( 1.00000000000000, 0.000000000000000, 0.000000000000000 ) );
#327 = ORIENTED_EDGE( '', *, *, #355, .T. );
#328 = ORIENTED_EDGE( '', *, *, #350, .T. );
#329 = CARTESIAN_POINT( '', ( 0.000000000000000, 0.000000000000000, 45.7192519623845 ) );
#330 = DIRECTION( '', ( -0.000000000000000, -0.000000000000000, 1.00000000000000 ) );
#331 = DIRECTION( '', ( -1.00000000000000, 0.000000000000000, 0.000000000000000 ) );
#332 = ORIENTED_EDGE( '', *, *, #355, .F. );
#333 = ORIENTED_EDGE( '', *, *, #348, .F. );
#334 = CARTESIAN_POINT( '', ( 0.000000000000000, 0.000000000000000, 4.42511915552094 ) );
#335 = DIRECTION( '', ( -0.000000000000000, -0.000000000000000, 1.00000000000000 ) );
#336 = DIRECTION( '', ( 1.00000000000000, 0.000000000000000, 0.000000000000000 ) );
#337 = ORIENTED_EDGE( '', *, *, #351, .T. );
#338 = ORIENTED_EDGE( '', *, *, #354, .T. );
#339 = CARTESIAN_POINT( '', ( 16.0000000000000, 0.000000000000000, 3.67381906146713E-015 ) );
#340 = DIRECTION( '', ( 0.000000000000000, 0.000000000000000, -1.00000000000000 ) );
#341 = DIRECTION( '', ( -1.00000000000000, 0.000000000000000, 0.000000000000000 ) );
#342 = EDGE_CURVE( '', #356, #356, #357, .T. );
#343 = EDGE_CURVE( '', #358, #358, #359, .F. );
#344 = EDGE_CURVE( '', #360, #360, #361, .T. );
#345 = EDGE_CURVE( '', #362, #362, #363, .T. );
#346 = EDGE_CURVE( '', #364, #364, #365, .T. );
#347 = EDGE_CURVE( '', #366, #366, #367, .F. );
#348 = EDGE_CURVE( '', #368, #368, #369, .F. );
#349 = EDGE_CURVE( '', #370, #370, #371, .T. );
#350 = EDGE_CURVE( '', #372, #372, #373, .T. );
#351 = EDGE_CURVE( '', #374, #374, #375, .F. );
#352 = EDGE_CURVE( '', #376, #376, #377, .F. );
#353 = EDGE_CURVE( '', #378, #378, #379, .F. );
#354 = EDGE_CURVE( '', #380, #380, #381, .T. );
#355 = EDGE_CURVE( '', #382, #382, #383, .T. );
#356 = VERTEX_POINT( '', #384 );
#357 = CIRCLE( '', #385, 15.8000000000000 );
#358 = VERTEX_POINT( '', #386 );
#359 = CIRCLE( '', #387, 9.00000000000000 );
#360 = VERTEX_POINT( '', #388 );
#361 = CIRCLE( '', #389, 8.50000000000000 );
#362 = VERTEX_POINT( '', #390 );
#363 = CIRCLE( '', #391, 16.0000000000000 );
#364 = VERTEX_POINT( '', #392 );
#365 = CIRCLE( '', #393, 8.50000000000000 );
#366 = VERTEX_POINT( '', #394 );
#367 = CIRCLE( '', #395, 16.0000000000000 );
#368 = VERTEX_POINT( '', #396 );
#369 = CIRCLE( '', #397, 9.97808062884777 );
#370 = VERTEX_POINT( '', #398 );
#371 = CIRCLE( '', #399, 15.7213930348259 );
#372 = VERTEX_POINT( '', #400 );
#373 = CIRCLE( '', #401, 9.50000000000000 );
#374 = VERTEX_POINT( '', #402 );
#375 = CIRCLE( '', #403, 10.0000000000000 );
#376 = VERTEX_POINT( '', #404 );
#377 = CIRCLE( '', #405, 16.0000000000000 );
#378 = VERTEX_POINT( '', #406 );
#379 = CIRCLE( '', #407, 16.0000000000000 );
#380 = VERTEX_POINT( '', #408 );
#381 = CIRCLE( '', #409, 15.8000000000000 );
#382 = VERTEX_POINT( '', #410 );
#383 = CIRCLE( '', #411, 9.50000000000000 );
#384 = CARTESIAN_POINT( '', ( 15.8000000000000, 0.000000000000000, 4.50000000000000 ) );
#385 = AXIS2_PLACEMENT_3D( '', #412, #413, #414 );
#386 = CARTESIAN_POINT( '', ( 9.00000000000000, 0.000000000000000, 4.50000000000000 ) );
#387 = AXIS2_PLACEMENT_3D( '', #415, #416, #417 );
#388 = CARTESIAN_POINT( '', ( 8.50000000000000, 0.000000000000000, 0.000000000000000 ) );
#389 = AXIS2_PLACEMENT_3D( '', #418, #419, #420 );
#390 = CARTESIAN_POINT( '', ( 16.0000000000000, 0.000000000000000, 2.42583710273944 ) );
#391 = AXIS2_PLACEMENT_3D( '', #421, #422, #423 );
#392 = CARTESIAN_POINT( '', ( 8.50000000000000, 0.000000000000000, 4.00000000000000 ) );
#393 = AXIS2_PLACEMENT_3D( '', #424, #425, #426 );
#394 = CARTESIAN_POINT( '', ( 16.0000000000000, 0.000000000000000, 4.30000000000000 ) );
#395 = AXIS2_PLACEMENT_3D( '', #427, #428, #429 );
#396 = CARTESIAN_POINT( '', ( 9.97808062884777, 0.000000000000000, 4.42511915552094 ) );
#397 = AXIS2_PLACEMENT_3D( '', #430, #431, #432 );
#398 = CARTESIAN_POINT( '', ( 15.7213930348259, 0.000000000000000, 6.37966211002149 ) );
#399 = AXIS2_PLACEMENT_3D( '', #433, #434, #435 );
#400 = CARTESIAN_POINT( '', ( -9.50000000000000, 0.000000000000000, 0.500000000000000 ) );
#401 = AXIS2_PLACEMENT_3D( '', #436, #437, #438 );
#402 = CARTESIAN_POINT( '', ( -10.0000000000000, 0.000000000000000, 3.67381906146713E-015 ) );
#403 = AXIS2_PLACEMENT_3D( '', #439, #440, #441 );
#404 = CARTESIAN_POINT( '', ( 16.0000000000000, 0.000000000000000, 6.19575739277337 ) );
#405 = AXIS2_PLACEMENT_3D( '', #442, #443, #444 );
#406 = CARTESIAN_POINT( '', ( -16.0000000000000, 0.000000000000000, 0.200000000000006 ) );
#407 = AXIS2_PLACEMENT_3D( '', #445, #446, #447 );
#408 = CARTESIAN_POINT( '', ( -15.8000000000000, 0.000000000000000, 3.68628738645072E-015 ) );
#409 = AXIS2_PLACEMENT_3D( '', #448, #449, #450 );
#410 = CARTESIAN_POINT( '', ( 9.50000000000000, 0.000000000000000, 3.80828032287111 ) );
#411 = AXIS2_PLACEMENT_3D( '', #451, #452, #453 );
#412 = CARTESIAN_POINT( '', ( 0.000000000000000, 0.000000000000000, 4.50000000000000 ) );
#413 = DIRECTION( '', ( 0.000000000000000, 0.000000000000000, 1.00000000000000 ) );
#414 = DIRECTION( '', ( 1.00000000000000, 0.000000000000000, 0.000000000000000 ) );
#415 = CARTESIAN_POINT( '', ( 0.000000000000000, 0.000000000000000, 4.50000000000000 ) );
#416 = DIRECTION( '', ( 0.000000000000000, 0.000000000000000, 1.00000000000000 ) );
#417 = DIRECTION( '', ( 1.00000000000000, 0.000000000000000, 0.000000000000000 ) );
#418 = CARTESIAN_POINT( '', ( 0.000000000000000, 0.000000000000000, 0.000000000000000 ) );
#419 = DIRECTION( '', ( 0.000000000000000, 0.000000000000000, 1.00000000000000 ) );
#420 = DIRECTION( '', ( 1.00000000000000, 0.000000000000000, 0.000000000000000 ) );
#421 = CARTESIAN_POINT( '', ( 0.000000000000000, 0.000000000000000, 2.42583710273944 ) );
#422 = DIRECTION( '', ( 0.000000000000000, 0.000000000000000, 1.00000000000000 ) );
#423 = DIRECTION( '', ( 1.00000000000000, 0.000000000000000, 0.000000000000000 ) );
#424 = CARTESIAN_POINT( '', ( 0.000000000000000, 0.000000000000000, 4.00000000000000 ) );
#425 = DIRECTION( '', ( 0.000000000000000, 0.000000000000000, 1.00000000000000 ) );
#426 = DIRECTION( '', ( 1.00000000000000, 0.000000000000000, 0.000000000000000 ) );
#427 = CARTESIAN_POINT( '', ( 0.000000000000000, 0.000000000000000, 4.30000000000000 ) );
#428 = DIRECTION( '', ( 0.000000000000000, 0.000000000000000, 1.00000000000000 ) );
#429 = DIRECTION( '', ( 1.00000000000000, 0.000000000000000, 0.000000000000000 ) );
#430 = CARTESIAN_POINT( '', ( 0.000000000000000, 0.000000000000000, 4.42511915552094 ) );
#431 = DIRECTION( '', ( 0.000000000000000, 0.000000000000000, 1.00000000000000 ) );
#432 = DIRECTION( '', ( 1.00000000000000, 0.000000000000000, 0.000000000000000 ) );
#433 = CARTESIAN_POINT( '', ( 0.000000000000000, 0.000000000000000, 6.37966211002149 ) );
#434 = DIRECTION( '', ( 0.000000000000000, 0.000000000000000, 1.00000000000000 ) );
#435 = DIRECTION( '', ( 1.00000000000000, 0.000000000000000, 0.000000000000000 ) );
#436 = CARTESIAN_POINT( '', ( 0.000000000000000, 0.000000000000000, 0.500000000000000 ) );
#437 = DIRECTION( '', ( 0.000000000000000, 0.000000000000000, -1.00000000000000 ) );
#438 = DIRECTION( '', ( -1.00000000000000, 0.000000000000000, 0.000000000000000 ) );
#439 = CARTESIAN_POINT( '', ( 0.000000000000000, 0.000000000000000, 3.67381906146713E-015 ) );
#440 = DIRECTION( '', ( 0.000000000000000, 0.000000000000000, -1.00000000000000 ) );
#441 = DIRECTION( '', ( -1.00000000000000, 0.000000000000000, 0.000000000000000 ) );
#442 = CARTESIAN_POINT( '', ( 0.000000000000000, 0.000000000000000, 6.19575739277337 ) );
#443 = DIRECTION( '', ( 0.000000000000000, 0.000000000000000, 1.00000000000000 ) );
#444 = DIRECTION( '', ( 1.00000000000000, 0.000000000000000, 0.000000000000000 ) );
#445 = CARTESIAN_POINT( '', ( 0.000000000000000, 0.000000000000000, 0.200000000000006 ) );
#446 = DIRECTION( '', ( 0.000000000000000, 0.000000000000000, -1.00000000000000 ) );
#447 = DIRECTION( '', ( -1.00000000000000, 0.000000000000000, 0.000000000000000 ) );
#448 = CARTESIAN_POINT( '', ( 0.000000000000000, 0.000000000000000, 3.68628738645072E-015 ) );
#449 = DIRECTION( '', ( 0.000000000000000, 0.000000000000000, -1.00000000000000 ) );
#450 = DIRECTION( '', ( -1.00000000000000, 0.000000000000000, 0.000000000000000 ) );
#451 = CARTESIAN_POINT( '', ( 0.000000000000000, 0.000000000000000, 3.80828032287111 ) );
#452 = DIRECTION( '', ( 0.000000000000000, 0.000000000000000, 1.00000000000000 ) );
#453 = DIRECTION( '', ( 1.00000000000000, 0.000000000000000, 0.000000000000000 ) );
ENDSEC;
END-ISO-10303-21;
