ISO-10303-21;
HEADER;
FILE_DESCRIPTION( ( 'Unknown' ), '1' );
FILE_NAME( 'S:/LEAVE 2D&3D CAD/LEAVE 3D-PAR/Metric/PT/PT38-3D/PT38-1412.stp', 'Unknown', ( 'Unknown' ), ( 'Unknown' ), 'XStep 1.0', 'Unknown', '  ' );
FILE_SCHEMA( ( 'CONFIG_CONTROL_DESIGN' ) );
ENDSEC;
DATA;
#1 = DESIGN_CONTEXT( '', #27, 'design' );
#2 = APPLICATION_PROTOCOL_DEFINITION( 'INTERNATIONAL STANDARD', 'config_control_design', 1994, #27 );
#3 = PRODUCT_CATEGORY_RELATIONSHIP( 'NONE', 'NONE', #28, #29 );
#4 = DATE_AND_TIME( #30, #31 );
#5 = DATE_TIME_ROLE( 'creation_date' );
#6 = DATE_TIME_ROLE( 'classification_date' );
#7 = PERSON_AND_ORGANIZATION_ROLE( 'creator' );
#8 = PERSON_AND_ORGANIZATION_ROLE( 'design_supplier' );
#9 = PERSON_AND_ORGANIZATION_ROLE( 'classification_officer' );
#10 = PERSON_AND_ORGANIZATION_ROLE( 'design_owner' );
#11 = APPROVAL_PERSON_ORGANIZATION( #32, #33, #34 );
#12 = APPROVAL_DATE_TIME( #4, #33 );
#13 = CC_DESIGN_APPROVAL( #33, ( #35, #36, #37 ) );
#14 = CC_DESIGN_DATE_AND_TIME_ASSIGNMENT( #4, #5, ( #37 ) );
#15 = CC_DESIGN_DATE_AND_TIME_ASSIGNMENT( #4, #6, ( #35 ) );
#16 = CC_DESIGN_PERSON_AND_ORGANIZATION_ASSIGNMENT( #32, #10, ( #38 ) );
#17 = CC_DESIGN_PERSON_AND_ORGANIZATION_ASSIGNMENT( #32, #7, ( #37 ) );
#18 = CC_DESIGN_PERSON_AND_ORGANIZATION_ASSIGNMENT( #32, #7, ( #36 ) );
#19 = CC_DESIGN_PERSON_AND_ORGANIZATION_ASSIGNMENT( #32, #8, ( #36 ) );
#20 = CC_DESIGN_SECURITY_CLASSIFICATION( #35, ( #36 ) );
#21 = CC_DESIGN_PERSON_AND_ORGANIZATION_ASSIGNMENT( #32, #9, ( #35 ) );
#22 = SHAPE_DEFINITION_REPRESENTATION( #39, #40 );
#23 =  ( GEOMETRIC_REPRESENTATION_CONTEXT( 3 )GLOBAL_UNCERTAINTY_ASSIGNED_CONTEXT( ( #43 ) )GLOBAL_UNIT_ASSIGNED_CONTEXT( ( #45, #46, #47 ) )REPRESENTATION_CONTEXT( 'NONE', 'WORKSPACE' ) );
#27 = APPLICATION_CONTEXT( 'CONFIGURATION CONTROLLED 3D DESIGNS OF MECHANICAL PARTS AND ASSEMBLIES' );
#28 = PRODUCT_CATEGORY( 'part', 'NONE' );
#29 = PRODUCT_RELATED_PRODUCT_CATEGORY( 'detail', ' ', ( #38 ) );
#30 = CALENDAR_DATE( 2009, 10, 10 );
#31 = LOCAL_TIME( 16, 7, 24.0000000000000, #49 );
#32 = PERSON_AND_ORGANIZATION( #50, #51 );
#33 = APPROVAL( #52, 'SOLID MODEL' );
#34 = APPROVAL_ROLE( 'APPROVED' );
#35 = SECURITY_CLASSIFICATION( '', '', #53 );
#36 = PRODUCT_DEFINITION_FORMATION_WITH_SPECIFIED_SOURCE( ' ', 'NONE', #38, .NOT_KNOWN. );
#37 = PRODUCT_DEFINITION( 'NONE', 'NONE', #36, #1 );
#38 = PRODUCT( '1', '1', 'PART-1-DESC', ( #54 ) );
#39 = PRODUCT_DEFINITION_SHAPE( 'NONE', 'NONE', #37 );
#40 = ADVANCED_BREP_SHAPE_REPRESENTATION( '1', ( #55, #56 ), #23 );
#43 = UNCERTAINTY_MEASURE_WITH_UNIT( LENGTH_MEASURE( 0.00100000000000000 ), #45, '', '' );
#45 =  ( CONVERSION_BASED_UNIT( 'MILLIMETRE', #59 )LENGTH_UNIT(  )NAMED_UNIT( #62 ) );
#46 =  ( NAMED_UNIT( #64 )PLANE_ANGLE_UNIT(  )SI_UNIT( $, .RADIAN. ) );
#47 =  ( NAMED_UNIT( #64 )SOLID_ANGLE_UNIT(  )SI_UNIT( $, .STERADIAN. ) );
#49 = COORDINATED_UNIVERSAL_TIME_OFFSET( 8, 0, .AHEAD. );
#50 = PERSON( '', 'UNSPECIFIED', $, $, $, $ );
#51 = ORGANIZATION( 'UNSPECIFIED', 'UNSPECIFIED', 'UNSPECIFIED' );
#52 = APPROVAL_STATUS( 'approved' );
#53 = SECURITY_CLASSIFICATION_LEVEL( 'unclassified' );
#54 = MECHANICAL_CONTEXT( '', #27, 'mechanical' );
#55 = MANIFOLD_SOLID_BREP( '1', #70 );
#56 = AXIS2_PLACEMENT_3D( '', #71, #72, #73 );
#59 = LENGTH_MEASURE_WITH_UNIT( LENGTH_MEASURE( 1.00000000000000 ), #74 );
#62 = DIMENSIONAL_EXPONENTS( 1.00000000000000, 0.000000000000000, 0.000000000000000, 0.000000000000000, 0.000000000000000, 0.000000000000000, 0.000000000000000 );
#64 = DIMENSIONAL_EXPONENTS( 0.000000000000000, 0.000000000000000, 0.000000000000000, 0.000000000000000, 0.000000000000000, 0.000000000000000, 0.000000000000000 );
#70 = CLOSED_SHELL( '', ( #75, #76, #77, #78, #79, #80, #81, #82, #83, #84, #85, #86, #87, #88, #89 ) );
#71 = CARTESIAN_POINT( '', ( 0.000000000000000, 0.000000000000000, 0.000000000000000 ) );
#72 = DIRECTION( '', ( 0.000000000000000, 0.000000000000000, 1.00000000000000 ) );
#73 = DIRECTION( '', ( 1.00000000000000, 0.000000000000000, 0.000000000000000 ) );
#74 =  ( NAMED_UNIT( #62 )LENGTH_UNIT(  )SI_UNIT( .MILLI., .METRE. ) );
#75 = ADVANCED_FACE( '', ( #91 ), #92, .T. );
#76 = ADVANCED_FACE( '', ( #93, #94 ), #95, .F. );
#77 = ADVANCED_FACE( '', ( #96 ), #97, .F. );
#78 = ADVANCED_FACE( '', ( #98, #99 ), #100, .T. );
#79 = ADVANCED_FACE( '', ( #101 ), #102, .T. );
#80 = ADVANCED_FACE( '', ( #103, #104 ), #105, .F. );
#81 = ADVANCED_FACE( '', ( #106, #107 ), #108, .F. );
#82 = ADVANCED_FACE( '', ( #109, #110 ), #111, .F. );
#83 = ADVANCED_FACE( '', ( #112 ), #113, .F. );
#84 = ADVANCED_FACE( '', ( #114 ), #115, .F. );
#85 = ADVANCED_FACE( '', ( #116 ), #117, .F. );
#86 = ADVANCED_FACE( '', ( #118 ), #119, .F. );
#87 = ADVANCED_FACE( '', ( #120 ), #121, .T. );
#88 = ADVANCED_FACE( '', ( #122 ), #123, .F. );
#89 = ADVANCED_FACE( '', ( #124 ), #125, .T. );
#91 = FACE_OUTER_BOUND( '', #126, .T. );
#92 = PLANE( '', #127 );
#93 = FACE_BOUND( '', #128, .T. );
#94 = FACE_OUTER_BOUND( '', #129, .T. );
#95 = CONICAL_SURFACE( '', #130, 6.05300000000000, 0.785398163397448 );
#96 = FACE_OUTER_BOUND( '', #131, .T. );
#97 = PLANE( '', #132 );
#98 = FACE_BOUND( '', #133, .T. );
#99 = FACE_OUTER_BOUND( '', #134, .T. );
#100 = PLANE( '', #135 );
#101 = FACE_OUTER_BOUND( '', #136, .T. );
#102 = CYLINDRICAL_SURFACE( '', #137, 9.85000000000019 );
#103 = FACE_OUTER_BOUND( '', #138, .T. );
#104 = FACE_OUTER_BOUND( '', #139, .T. );
#105 = CYLINDRICAL_SURFACE( '', #140, 5.05300000000000 );
#106 = FACE_BOUND( '', #141, .T. );
#107 = FACE_OUTER_BOUND( '', #142, .T. );
#108 = CONICAL_SURFACE( '', #143, 6.05300000000000, 0.785398163397448 );
#109 = FACE_BOUND( '', #144, .T. );
#110 = FACE_OUTER_BOUND( '', #145, .T. );
#111 = PLANE( '', #146 );
#112 = FACE_OUTER_BOUND( '', #147, .T. );
#113 = PLANE( '', #148 );
#114 = FACE_OUTER_BOUND( '', #149, .T. );
#115 = PLANE( '', #150 );
#116 = FACE_OUTER_BOUND( '', #151, .T. );
#117 = PLANE( '', #152 );
#118 = FACE_OUTER_BOUND( '', #153, .T. );
#119 = PLANE( '', #154 );
#120 = FACE_OUTER_BOUND( '', #155, .T. );
#121 = CYLINDRICAL_SURFACE( '', #156, 6.84999999999194 );
#122 = FACE_OUTER_BOUND( '', #157, .T. );
#123 = PLANE( '', #158 );
#124 = FACE_OUTER_BOUND( '', #159, .T. );
#125 = PLANE( '', #160 );
#126 = EDGE_LOOP( '', ( #161, #162, #163, #164, #165 ) );
#127 = AXIS2_PLACEMENT_3D( '', #166, #167, #168 );
#128 = EDGE_LOOP( '', ( #169 ) );
#129 = EDGE_LOOP( '', ( #170 ) );
#130 = AXIS2_PLACEMENT_3D( '', #171, #172, #173 );
#131 = EDGE_LOOP( '', ( #174, #175, #176, #177 ) );
#132 = AXIS2_PLACEMENT_3D( '', #178, #179, #180 );
#133 = EDGE_LOOP( '', ( #181 ) );
#134 = EDGE_LOOP( '', ( #182, #183, #184, #185, #186, #187 ) );
#135 = AXIS2_PLACEMENT_3D( '', #188, #189, #190 );
#136 = EDGE_LOOP( '', ( #191, #192, #193, #194 ) );
#137 = AXIS2_PLACEMENT_3D( '', #195, #196, #197 );
#138 = EDGE_LOOP( '', ( #198 ) );
#139 = EDGE_LOOP( '', ( #199 ) );
#140 = AXIS2_PLACEMENT_3D( '', #200, #201, #202 );
#141 = EDGE_LOOP( '', ( #203 ) );
#142 = EDGE_LOOP( '', ( #204 ) );
#143 = AXIS2_PLACEMENT_3D( '', #205, #206, #207 );
#144 = EDGE_LOOP( '', ( #208 ) );
#145 = EDGE_LOOP( '', ( #209, #210, #211, #212 ) );
#146 = AXIS2_PLACEMENT_3D( '', #213, #214, #215 );
#147 = EDGE_LOOP( '', ( #216, #217, #218, #219, #220, #221, #222, #223 ) );
#148 = AXIS2_PLACEMENT_3D( '', #224, #225, #226 );
#149 = EDGE_LOOP( '', ( #227, #228, #229, #230 ) );
#150 = AXIS2_PLACEMENT_3D( '', #231, #232, #233 );
#151 = EDGE_LOOP( '', ( #234, #235, #236, #237 ) );
#152 = AXIS2_PLACEMENT_3D( '', #238, #239, #240 );
#153 = EDGE_LOOP( '', ( #241, #242, #243, #244, #245, #246, #247, #248 ) );
#154 = AXIS2_PLACEMENT_3D( '', #249, #250, #251 );
#155 = EDGE_LOOP( '', ( #252, #253, #254, #255 ) );
#156 = AXIS2_PLACEMENT_3D( '', #256, #257, #258 );
#157 = EDGE_LOOP( '', ( #259, #260, #261, #262 ) );
#158 = AXIS2_PLACEMENT_3D( '', #263, #264, #265 );
#159 = EDGE_LOOP( '', ( #266, #267, #268, #269, #270 ) );
#160 = AXIS2_PLACEMENT_3D( '', #271, #272, #273 );
#161 = ORIENTED_EDGE( '', *, *, #274, .T. );
#162 = ORIENTED_EDGE( '', *, *, #275, .T. );
#163 = ORIENTED_EDGE( '', *, *, #276, .T. );
#164 = ORIENTED_EDGE( '', *, *, #277, .T. );
#165 = ORIENTED_EDGE( '', *, *, #278, .T. );
#166 = CARTESIAN_POINT( '', ( -16.7142902930397, -6.75000000000000, 8.70000000000000 ) );
#167 = DIRECTION( '', ( 0.000000000000000, 0.000000000000000, 1.00000000000000 ) );
#168 = DIRECTION( '', ( 1.00000000000000, 0.000000000000000, 0.000000000000000 ) );
#169 = ORIENTED_EDGE( '', *, *, #279, .F. );
#170 = ORIENTED_EDGE( '', *, *, #280, .F. );
#171 = CARTESIAN_POINT( '', ( 6.28837260041593E-015, -4.33680868994202E-016, 15.8000000000000 ) );
#172 = DIRECTION( '', ( -0.000000000000000, -0.000000000000000, 1.00000000000000 ) );
#173 = DIRECTION( '', ( 1.00000000000000, 0.000000000000000, 0.000000000000000 ) );
#174 = ORIENTED_EDGE( '', *, *, #274, .F. );
#175 = ORIENTED_EDGE( '', *, *, #281, .F. );
#176 = ORIENTED_EDGE( '', *, *, #282, .F. );
#177 = ORIENTED_EDGE( '', *, *, #283, .T. );
#178 = CARTESIAN_POINT( '', ( -6.91376947354584, 1.82499999999990, 15.8000000000000 ) );
#179 = DIRECTION( '', ( 0.866025403784439, -0.500000000000000, 0.000000000000000 ) );
#180 = DIRECTION( '', ( 0.500000000000000, 0.866025403784439, 0.000000000000000 ) );
#181 = ORIENTED_EDGE( '', *, *, #280, .T. );
#182 = ORIENTED_EDGE( '', *, *, #284, .T. );
#183 = ORIENTED_EDGE( '', *, *, #282, .T. );
#184 = ORIENTED_EDGE( '', *, *, #285, .T. );
#185 = ORIENTED_EDGE( '', *, *, #286, .T. );
#186 = ORIENTED_EDGE( '', *, *, #287, .T. );
#187 = ORIENTED_EDGE( '', *, *, #288, .T. );
#188 = CARTESIAN_POINT( '', ( 1.61658075373106, -3.10000000000020, 15.8000000000000 ) );
#189 = DIRECTION( '', ( 0.000000000000000, 0.000000000000000, 1.00000000000000 ) );
#190 = DIRECTION( '', ( 1.00000000000000, 0.000000000000000, 0.000000000000000 ) );
#191 = ORIENTED_EDGE( '', *, *, #275, .F. );
#192 = ORIENTED_EDGE( '', *, *, #283, .F. );
#193 = ORIENTED_EDGE( '', *, *, #284, .F. );
#194 = ORIENTED_EDGE( '', *, *, #289, .T. );
#195 = CARTESIAN_POINT( '', ( 1.61658075373106, -3.10000000000020, 15.8000000000000 ) );
#196 = DIRECTION( '', ( -0.000000000000000, -0.000000000000000, 1.00000000000000 ) );
#197 = DIRECTION( '', ( -1.00000000000000, 0.000000000000000, 0.000000000000000 ) );
#198 = ORIENTED_EDGE( '', *, *, #290, .T. );
#199 = ORIENTED_EDGE( '', *, *, #279, .T. );
#200 = CARTESIAN_POINT( '', ( 6.28837260041593E-015, -4.33680868994202E-016, 15.8000000000000 ) );
#201 = DIRECTION( '', ( -0.000000000000000, -0.000000000000000, 1.00000000000000 ) );
#202 = DIRECTION( '', ( 0.000000000000000, -1.00000000000000, 0.000000000000000 ) );
#203 = ORIENTED_EDGE( '', *, *, #290, .F. );
#204 = ORIENTED_EDGE( '', *, *, #291, .F. );
#205 = CARTESIAN_POINT( '', ( 6.28837260041593E-015, -4.33680868994202E-016, 0.000000000000000 ) );
#206 = DIRECTION( '', ( -0.000000000000000, 0.000000000000000, -1.00000000000000 ) );
#207 = DIRECTION( '', ( -1.00000000000000, 0.000000000000000, 0.000000000000000 ) );
#208 = ORIENTED_EDGE( '', *, *, #291, .T. );
#209 = ORIENTED_EDGE( '', *, *, #292, .F. );
#210 = ORIENTED_EDGE( '', *, *, #293, .F. );
#211 = ORIENTED_EDGE( '', *, *, #294, .F. );
#212 = ORIENTED_EDGE( '', *, *, #295, .F. );
#213 = CARTESIAN_POINT( '', ( -16.7142902930397, -6.75000000000000, 0.000000000000000 ) );
#214 = DIRECTION( '', ( 0.000000000000000, 0.000000000000000, 1.00000000000000 ) );
#215 = DIRECTION( '', ( 1.00000000000000, 0.000000000000000, 0.000000000000000 ) );
#216 = ORIENTED_EDGE( '', *, *, #293, .T. );
#217 = ORIENTED_EDGE( '', *, *, #296, .F. );
#218 = ORIENTED_EDGE( '', *, *, #276, .F. );
#219 = ORIENTED_EDGE( '', *, *, #289, .F. );
#220 = ORIENTED_EDGE( '', *, *, #288, .F. );
#221 = ORIENTED_EDGE( '', *, *, #297, .T. );
#222 = ORIENTED_EDGE( '', *, *, #298, .F. );
#223 = ORIENTED_EDGE( '', *, *, #299, .T. );
#224 = CARTESIAN_POINT( '', ( 16.7142902930397, 6.75000000000000, 8.70000000000000 ) );
#225 = DIRECTION( '', ( 0.000000000000000, -1.00000000000000, 0.000000000000000 ) );
#226 = DIRECTION( '', ( 0.000000000000000, 0.000000000000000, -1.00000000000000 ) );
#227 = ORIENTED_EDGE( '', *, *, #292, .T. );
#228 = ORIENTED_EDGE( '', *, *, #300, .F. );
#229 = ORIENTED_EDGE( '', *, *, #277, .F. );
#230 = ORIENTED_EDGE( '', *, *, #296, .T. );
#231 = CARTESIAN_POINT( '', ( -8.92006165897972, 6.75000000000000, 8.70000000000000 ) );
#232 = DIRECTION( '', ( 0.866025403784439, -0.500000000000000, 0.000000000000000 ) );
#233 = DIRECTION( '', ( 0.500000000000000, 0.866025403784439, 0.000000000000000 ) );
#234 = ORIENTED_EDGE( '', *, *, #294, .T. );
#235 = ORIENTED_EDGE( '', *, *, #299, .F. );
#236 = ORIENTED_EDGE( '', *, *, #301, .F. );
#237 = ORIENTED_EDGE( '', *, *, #302, .T. );
#238 = CARTESIAN_POINT( '', ( 16.7142902930397, 6.75000000000000, 8.70000000000000 ) );
#239 = DIRECTION( '', ( -0.866025403784439, 0.500000000000000, 0.000000000000000 ) );
#240 = DIRECTION( '', ( -0.500000000000000, -0.866025403784439, 0.000000000000000 ) );
#241 = ORIENTED_EDGE( '', *, *, #295, .T. );
#242 = ORIENTED_EDGE( '', *, *, #302, .F. );
#243 = ORIENTED_EDGE( '', *, *, #303, .F. );
#244 = ORIENTED_EDGE( '', *, *, #304, .F. );
#245 = ORIENTED_EDGE( '', *, *, #285, .F. );
#246 = ORIENTED_EDGE( '', *, *, #281, .T. );
#247 = ORIENTED_EDGE( '', *, *, #278, .F. );
#248 = ORIENTED_EDGE( '', *, *, #300, .T. );
#249 = CARTESIAN_POINT( '', ( -16.7142902930397, -6.75000000000000, 8.70000000000000 ) );
#250 = DIRECTION( '', ( 0.000000000000000, 1.00000000000000, 0.000000000000000 ) );
#251 = DIRECTION( '', ( 0.000000000000000, 0.000000000000000, 1.00000000000000 ) );
#252 = ORIENTED_EDGE( '', *, *, #305, .F. );
#253 = ORIENTED_EDGE( '', *, *, #306, .F. );
#254 = ORIENTED_EDGE( '', *, *, #286, .F. );
#255 = ORIENTED_EDGE( '', *, *, #304, .T. );
#256 = CARTESIAN_POINT( '', ( 0.115470053842583, 0.0999999999919338, 15.8000000000000 ) );
#257 = DIRECTION( '', ( -0.000000000000000, -0.000000000000000, 1.00000000000000 ) );
#258 = DIRECTION( '', ( -1.00000000000000, 0.000000000000000, 0.000000000000000 ) );
#259 = ORIENTED_EDGE( '', *, *, #307, .F. );
#260 = ORIENTED_EDGE( '', *, *, #297, .F. );
#261 = ORIENTED_EDGE( '', *, *, #287, .F. );
#262 = ORIENTED_EDGE( '', *, *, #306, .T. );
#263 = CARTESIAN_POINT( '', ( 11.8645480318468, 6.75000000000000, 15.8000000000000 ) );
#264 = DIRECTION( '', ( -0.866025403784439, 0.500000000000000, 0.000000000000000 ) );
#265 = DIRECTION( '', ( -0.500000000000000, -0.866025403784439, 0.000000000000000 ) );
#266 = ORIENTED_EDGE( '', *, *, #307, .T. );
#267 = ORIENTED_EDGE( '', *, *, #305, .T. );
#268 = ORIENTED_EDGE( '', *, *, #303, .T. );
#269 = ORIENTED_EDGE( '', *, *, #301, .T. );
#270 = ORIENTED_EDGE( '', *, *, #298, .T. );
#271 = CARTESIAN_POINT( '', ( -16.7142902930397, -6.75000000000000, 8.70000000000000 ) );
#272 = DIRECTION( '', ( 0.000000000000000, 0.000000000000000, 1.00000000000000 ) );
#273 = DIRECTION( '', ( 1.00000000000000, 0.000000000000000, 0.000000000000000 ) );
#274 = EDGE_CURVE( '', #308, #309, #310, .T. );
#275 = EDGE_CURVE( '', #309, #311, #312, .F. );
#276 = EDGE_CURVE( '', #311, #313, #314, .T. );
#277 = EDGE_CURVE( '', #313, #315, #316, .T. );
#278 = EDGE_CURVE( '', #315, #308, #317, .T. );
#279 = EDGE_CURVE( '', #318, #318, #319, .T. );
#280 = EDGE_CURVE( '', #320, #320, #321, .F. );
#281 = EDGE_CURVE( '', #322, #308, #323, .T. );
#282 = EDGE_CURVE( '', #324, #322, #325, .T. );
#283 = EDGE_CURVE( '', #324, #309, #326, .T. );
#284 = EDGE_CURVE( '', #327, #324, #328, .T. );
#285 = EDGE_CURVE( '', #322, #329, #330, .T. );
#286 = EDGE_CURVE( '', #329, #331, #332, .T. );
#287 = EDGE_CURVE( '', #331, #333, #334, .T. );
#288 = EDGE_CURVE( '', #333, #327, #335, .T. );
#289 = EDGE_CURVE( '', #327, #311, #336, .T. );
#290 = EDGE_CURVE( '', #337, #337, #338, .F. );
#291 = EDGE_CURVE( '', #339, #339, #340, .T. );
#292 = EDGE_CURVE( '', #341, #342, #343, .T. );
#293 = EDGE_CURVE( '', #344, #341, #345, .T. );
#294 = EDGE_CURVE( '', #346, #344, #347, .T. );
#295 = EDGE_CURVE( '', #342, #346, #348, .T. );
#296 = EDGE_CURVE( '', #313, #341, #349, .T. );
#297 = EDGE_CURVE( '', #333, #350, #351, .T. );
#298 = EDGE_CURVE( '', #352, #350, #353, .T. );
#299 = EDGE_CURVE( '', #352, #344, #354, .T. );
#300 = EDGE_CURVE( '', #315, #342, #355, .T. );
#301 = EDGE_CURVE( '', #356, #352, #357, .T. );
#302 = EDGE_CURVE( '', #356, #346, #358, .T. );
#303 = EDGE_CURVE( '', #359, #356, #360, .T. );
#304 = EDGE_CURVE( '', #329, #359, #361, .T. );
#305 = EDGE_CURVE( '', #362, #359, #363, .F. );
#306 = EDGE_CURVE( '', #331, #362, #364, .T. );
#307 = EDGE_CURVE( '', #350, #362, #365, .T. );
#308 = VERTEX_POINT( '', #366 );
#309 = VERTEX_POINT( '', #367 );
#310 = LINE( '', #368, #369 );
#311 = VERTEX_POINT( '', #370 );
#312 = CIRCLE( '', #371, 9.85000000000019 );
#313 = VERTEX_POINT( '', #372 );
#314 = LINE( '', #373, #374 );
#315 = VERTEX_POINT( '', #375 );
#316 = LINE( '', #376, #377 );
#317 = LINE( '', #378, #379 );
#318 = VERTEX_POINT( '', #380 );
#319 = CIRCLE( '', #381, 5.05300000000000 );
#320 = VERTEX_POINT( '', #382 );
#321 = CIRCLE( '', #383, 6.05300000000000 );
#322 = VERTEX_POINT( '', #384 );
#323 = LINE( '', #385, #386 );
#324 = VERTEX_POINT( '', #387 );
#325 = LINE( '', #388, #389 );
#326 = LINE( '', #390, #391 );
#327 = VERTEX_POINT( '', #392 );
#328 = CIRCLE( '', #393, 9.85000000000019 );
#329 = VERTEX_POINT( '', #394 );
#330 = LINE( '', #395, #396 );
#331 = VERTEX_POINT( '', #397 );
#332 = CIRCLE( '', #398, 6.84999999999194 );
#333 = VERTEX_POINT( '', #399 );
#334 = LINE( '', #400, #401 );
#335 = LINE( '', #402, #403 );
#336 = LINE( '', #404, #405 );
#337 = VERTEX_POINT( '', #406 );
#338 = CIRCLE( '', #407, 5.05300000000000 );
#339 = VERTEX_POINT( '', #408 );
#340 = CIRCLE( '', #409, 6.05300000000000 );
#341 = VERTEX_POINT( '', #410 );
#342 = VERTEX_POINT( '', #411 );
#343 = LINE( '', #412, #413 );
#344 = VERTEX_POINT( '', #414 );
#345 = LINE( '', #415, #416 );
#346 = VERTEX_POINT( '', #417 );
#347 = LINE( '', #418, #419 );
#348 = LINE( '', #420, #421 );
#349 = LINE( '', #422, #423 );
#350 = VERTEX_POINT( '', #424 );
#351 = LINE( '', #425, #426 );
#352 = VERTEX_POINT( '', #427 );
#353 = LINE( '', #428, #429 );
#354 = LINE( '', #430, #431 );
#355 = LINE( '', #432, #433 );
#356 = VERTEX_POINT( '', #434 );
#357 = LINE( '', #435, #436 );
#358 = LINE( '', #437, #438 );
#359 = VERTEX_POINT( '', #439 );
#360 = LINE( '', #440, #441 );
#361 = LINE( '', #442, #443 );
#362 = VERTEX_POINT( '', #444 );
#363 = CIRCLE( '', #445, 6.84999999999194 );
#364 = LINE( '', #446, #447 );
#365 = LINE( '', #448, #449 );
#366 = CARTESIAN_POINT( '', ( -11.8645480318468, -6.75000000000000, 8.70000000000000 ) );
#367 = CARTESIAN_POINT( '', ( -6.91376947354583, 1.82499999999990, 8.70000000000000 ) );
#368 = CARTESIAN_POINT( '', ( -13.0769835971450, -8.85000000000000, 8.70000000000000 ) );
#369 = VECTOR( '', #450, 1000.00000000000 );
#370 = CARTESIAN_POINT( '', ( 1.61658075373106, 6.75000000000000, 8.70000000000000 ) );
#371 = AXIS2_PLACEMENT_3D( '', #451, #452, #453 );
#372 = CARTESIAN_POINT( '', ( -8.92006165897973, 6.75000000000000, 8.70000000000000 ) );
#373 = CARTESIAN_POINT( '', ( 16.7142902930397, 6.75000000000000, 8.70000000000000 ) );
#374 = VECTOR( '', #454, 1000.00000000000 );
#375 = CARTESIAN_POINT( '', ( -16.7142902930397, -6.75000000000000, 8.70000000000000 ) );
#376 = CARTESIAN_POINT( '', ( -8.92006165897972, 6.75000000000000, 8.70000000000000 ) );
#377 = VECTOR( '', #455, 1000.00000000000 );
#378 = CARTESIAN_POINT( '', ( -16.7142902930397, -6.75000000000000, 8.70000000000000 ) );
#379 = VECTOR( '', #456, 1000.00000000000 );
#380 = CARTESIAN_POINT( '', ( 5.05300000000001, -4.33680868994202E-016, 14.8000000000000 ) );
#381 = AXIS2_PLACEMENT_3D( '', #457, #458, #459 );
#382 = CARTESIAN_POINT( '', ( 6.05300000000001, -4.33680868994202E-016, 15.8000000000000 ) );
#383 = AXIS2_PLACEMENT_3D( '', #460, #461, #462 );
#384 = CARTESIAN_POINT( '', ( -11.8645480318468, -6.75000000000000, 15.8000000000000 ) );
#385 = CARTESIAN_POINT( '', ( -11.8645480318468, -6.75000000000000, 15.8000000000000 ) );
#386 = VECTOR( '', #463, 1000.00000000000 );
#387 = CARTESIAN_POINT( '', ( -6.91376947354584, 1.82499999999990, 15.8000000000000 ) );
#388 = CARTESIAN_POINT( '', ( -6.91376947354584, 1.82499999999990, 15.8000000000000 ) );
#389 = VECTOR( '', #464, 1000.00000000000 );
#390 = CARTESIAN_POINT( '', ( -6.91376947354584, 1.82499999999990, 15.8000000000000 ) );
#391 = VECTOR( '', #465, 1000.00000000000 );
#392 = CARTESIAN_POINT( '', ( 1.61658075373106, 6.75000000000000, 15.8000000000000 ) );
#393 = AXIS2_PLACEMENT_3D( '', #466, #467, #468 );
#394 = CARTESIAN_POINT( '', ( 0.115470053842584, -6.75000000000000, 15.8000000000000 ) );
#395 = CARTESIAN_POINT( '', ( 0.115470053842584, -6.75000000000000, 15.8000000000000 ) );
#396 = VECTOR( '', #469, 1000.00000000000 );
#397 = CARTESIAN_POINT( '', ( 6.04774406975901, -3.32500000000403, 15.8000000000000 ) );
#398 = AXIS2_PLACEMENT_3D( '', #470, #471, #472 );
#399 = CARTESIAN_POINT( '', ( 11.8645480318468, 6.75000000000000, 15.8000000000000 ) );
#400 = CARTESIAN_POINT( '', ( 11.8645480318468, 6.75000000000000, 15.8000000000000 ) );
#401 = VECTOR( '', #473, 1000.00000000000 );
#402 = CARTESIAN_POINT( '', ( 1.61658075373106, 6.75000000000000, 15.8000000000000 ) );
#403 = VECTOR( '', #474, 1000.00000000000 );
#404 = CARTESIAN_POINT( '', ( 1.61658075373106, 6.75000000000000, 15.8000000000000 ) );
#405 = VECTOR( '', #475, 1000.00000000000 );
#406 = CARTESIAN_POINT( '', ( 5.05300000000001, -4.33680868994202E-016, 1.00000000000000 ) );
#407 = AXIS2_PLACEMENT_3D( '', #476, #477, #478 );
#408 = CARTESIAN_POINT( '', ( 6.05300000000001, -4.33680868994202E-016, 0.000000000000000 ) );
#409 = AXIS2_PLACEMENT_3D( '', #479, #480, #481 );
#410 = CARTESIAN_POINT( '', ( -8.92006165897973, 6.75000000000000, 0.000000000000000 ) );
#411 = CARTESIAN_POINT( '', ( -16.7142902930397, -6.75000000000000, 0.000000000000000 ) );
#412 = CARTESIAN_POINT( '', ( -8.92006165897972, 6.75000000000000, 0.000000000000000 ) );
#413 = VECTOR( '', #482, 1000.00000000000 );
#414 = CARTESIAN_POINT( '', ( 16.7142902930397, 6.75000000000000, 0.000000000000000 ) );
#415 = CARTESIAN_POINT( '', ( 16.7142902930397, 6.75000000000000, 0.000000000000000 ) );
#416 = VECTOR( '', #483, 1000.00000000000 );
#417 = CARTESIAN_POINT( '', ( 8.92006165897972, -6.75000000000000, 0.000000000000000 ) );
#418 = CARTESIAN_POINT( '', ( 16.7142902930397, 6.75000000000000, 0.000000000000000 ) );
#419 = VECTOR( '', #484, 1000.00000000000 );
#420 = CARTESIAN_POINT( '', ( -16.7142902930397, -6.75000000000000, 0.000000000000000 ) );
#421 = VECTOR( '', #485, 1000.00000000000 );
#422 = CARTESIAN_POINT( '', ( -8.92006165897973, 6.75000000000000, 8.70000000000000 ) );
#423 = VECTOR( '', #486, 1000.00000000000 );
#424 = CARTESIAN_POINT( '', ( 11.8645480318468, 6.75000000000000, 8.70000000000000 ) );
#425 = CARTESIAN_POINT( '', ( 11.8645480318468, 6.75000000000000, 15.8000000000000 ) );
#426 = VECTOR( '', #487, 1000.00000000000 );
#427 = CARTESIAN_POINT( '', ( 16.7142902930397, 6.75000000000000, 8.70000000000000 ) );
#428 = CARTESIAN_POINT( '', ( 16.7142902930397, 6.75000000000000, 8.70000000000000 ) );
#429 = VECTOR( '', #488, 1000.00000000000 );
#430 = CARTESIAN_POINT( '', ( 16.7142902930397, 6.75000000000000, 8.70000000000000 ) );
#431 = VECTOR( '', #489, 1000.00000000000 );
#432 = CARTESIAN_POINT( '', ( -16.7142902930397, -6.75000000000000, 8.70000000000000 ) );
#433 = VECTOR( '', #490, 1000.00000000000 );
#434 = CARTESIAN_POINT( '', ( 8.92006165897972, -6.75000000000000, 8.70000000000000 ) );
#435 = CARTESIAN_POINT( '', ( 16.7142902930397, 6.75000000000000, 8.70000000000000 ) );
#436 = VECTOR( '', #491, 1000.00000000000 );
#437 = CARTESIAN_POINT( '', ( 8.92006165897972, -6.75000000000000, 8.70000000000000 ) );
#438 = VECTOR( '', #492, 1000.00000000000 );
#439 = CARTESIAN_POINT( '', ( 0.115470053842583, -6.75000000000000, 8.70000000000000 ) );
#440 = CARTESIAN_POINT( '', ( -16.7142902930397, -6.75000000000000, 8.70000000000000 ) );
#441 = VECTOR( '', #493, 1000.00000000000 );
#442 = CARTESIAN_POINT( '', ( 0.115470053842584, -6.75000000000000, 15.8000000000000 ) );
#443 = VECTOR( '', #494, 1000.00000000000 );
#444 = CARTESIAN_POINT( '', ( 6.04774406975901, -3.32500000000403, 8.70000000000000 ) );
#445 = AXIS2_PLACEMENT_3D( '', #495, #496, #497 );
#446 = CARTESIAN_POINT( '', ( 6.04774406975901, -3.32500000000403, 15.8000000000000 ) );
#447 = VECTOR( '', #498, 1000.00000000000 );
#448 = CARTESIAN_POINT( '', ( -1.12583302491975, -15.7500000000000, 8.70000000000000 ) );
#449 = VECTOR( '', #499, 1000.00000000000 );
#450 = DIRECTION( '', ( 0.500000000000000, 0.866025403784439, 0.000000000000000 ) );
#451 = CARTESIAN_POINT( '', ( 1.61658075373106, -3.10000000000020, 8.70000000000000 ) );
#452 = DIRECTION( '', ( 0.000000000000000, 0.000000000000000, 1.00000000000000 ) );
#453 = DIRECTION( '', ( 1.00000000000000, 0.000000000000000, 0.000000000000000 ) );
#454 = DIRECTION( '', ( -1.00000000000000, 0.000000000000000, 0.000000000000000 ) );
#455 = DIRECTION( '', ( -0.500000000000000, -0.866025403784439, 0.000000000000000 ) );
#456 = DIRECTION( '', ( 1.00000000000000, 0.000000000000000, 0.000000000000000 ) );
#457 = CARTESIAN_POINT( '', ( 6.28837260041593E-015, -4.33680868994202E-016, 14.8000000000000 ) );
#458 = DIRECTION( '', ( 0.000000000000000, 0.000000000000000, 1.00000000000000 ) );
#459 = DIRECTION( '', ( 1.00000000000000, 0.000000000000000, 0.000000000000000 ) );
#460 = CARTESIAN_POINT( '', ( 6.28837260041593E-015, -4.33680868994202E-016, 15.8000000000000 ) );
#461 = DIRECTION( '', ( 0.000000000000000, 0.000000000000000, 1.00000000000000 ) );
#462 = DIRECTION( '', ( 1.00000000000000, 0.000000000000000, 0.000000000000000 ) );
#463 = DIRECTION( '', ( 0.000000000000000, 0.000000000000000, -1.00000000000000 ) );
#464 = DIRECTION( '', ( -0.500000000000000, -0.866025403784439, 0.000000000000000 ) );
#465 = DIRECTION( '', ( 0.000000000000000, 0.000000000000000, -1.00000000000000 ) );
#466 = CARTESIAN_POINT( '', ( 1.61658075373106, -3.10000000000020, 15.8000000000000 ) );
#467 = DIRECTION( '', ( 0.000000000000000, 0.000000000000000, 1.00000000000000 ) );
#468 = DIRECTION( '', ( 1.00000000000000, 0.000000000000000, 0.000000000000000 ) );
#469 = DIRECTION( '', ( 1.00000000000000, 0.000000000000000, 0.000000000000000 ) );
#470 = CARTESIAN_POINT( '', ( 0.115470053842583, 0.0999999999919338, 15.8000000000000 ) );
#471 = DIRECTION( '', ( 0.000000000000000, 0.000000000000000, 1.00000000000000 ) );
#472 = DIRECTION( '', ( 1.00000000000000, 0.000000000000000, 0.000000000000000 ) );
#473 = DIRECTION( '', ( 0.500000000000000, 0.866025403784439, 0.000000000000000 ) );
#474 = DIRECTION( '', ( -1.00000000000000, -1.69274884364752E-016, 0.000000000000000 ) );
#475 = DIRECTION( '', ( 0.000000000000000, 0.000000000000000, -1.00000000000000 ) );
#476 = CARTESIAN_POINT( '', ( 6.28837260041593E-015, -4.33680868994202E-016, 1.00000000000000 ) );
#477 = DIRECTION( '', ( 0.000000000000000, 0.000000000000000, 1.00000000000000 ) );
#478 = DIRECTION( '', ( 1.00000000000000, 0.000000000000000, 0.000000000000000 ) );
#479 = CARTESIAN_POINT( '', ( 6.28837260041593E-015, -4.33680868994202E-016, 0.000000000000000 ) );
#480 = DIRECTION( '', ( 0.000000000000000, 0.000000000000000, 1.00000000000000 ) );
#481 = DIRECTION( '', ( 1.00000000000000, 0.000000000000000, 0.000000000000000 ) );
#482 = DIRECTION( '', ( -0.500000000000000, -0.866025403784439, 0.000000000000000 ) );
#483 = DIRECTION( '', ( -1.00000000000000, 0.000000000000000, 0.000000000000000 ) );
#484 = DIRECTION( '', ( 0.500000000000000, 0.866025403784439, 0.000000000000000 ) );
#485 = DIRECTION( '', ( 1.00000000000000, 0.000000000000000, 0.000000000000000 ) );
#486 = DIRECTION( '', ( 0.000000000000000, 0.000000000000000, -1.00000000000000 ) );
#487 = DIRECTION( '', ( 0.000000000000000, 0.000000000000000, -1.00000000000000 ) );
#488 = DIRECTION( '', ( -1.00000000000000, 0.000000000000000, 0.000000000000000 ) );
#489 = DIRECTION( '', ( 0.000000000000000, 0.000000000000000, -1.00000000000000 ) );
#490 = DIRECTION( '', ( 0.000000000000000, 0.000000000000000, -1.00000000000000 ) );
#491 = DIRECTION( '', ( 0.500000000000000, 0.866025403784439, 0.000000000000000 ) );
#492 = DIRECTION( '', ( 0.000000000000000, 0.000000000000000, -1.00000000000000 ) );
#493 = DIRECTION( '', ( 1.00000000000000, 0.000000000000000, 0.000000000000000 ) );
#494 = DIRECTION( '', ( 0.000000000000000, 0.000000000000000, -1.00000000000000 ) );
#495 = CARTESIAN_POINT( '', ( 0.115470053842583, 0.0999999999919338, 8.70000000000000 ) );
#496 = DIRECTION( '', ( 0.000000000000000, 0.000000000000000, 1.00000000000000 ) );
#497 = DIRECTION( '', ( 1.00000000000000, 0.000000000000000, 0.000000000000000 ) );
#498 = DIRECTION( '', ( 0.000000000000000, 0.000000000000000, -1.00000000000000 ) );
#499 = DIRECTION( '', ( -0.500000000000000, -0.866025403784439, 0.000000000000000 ) );
ENDSEC;
END-ISO-10303-21;
