ISO-10303-21;
HEADER;
FILE_DESCRIPTION( ( 'Unknown' ), '1' );
FILE_NAME( 'S:/LEAVE 2D&3D CAD/LEAVE 3D-PAR/Metric/PT/PT38-3D/PT38-1816.stp', 'Unknown', ( 'Unknown' ), ( 'Unknown' ), 'XStep 1.0', 'Unknown', '  ' );
FILE_SCHEMA( ( 'CONFIG_CONTROL_DESIGN' ) );
ENDSEC;
DATA;
#1 = DESIGN_CONTEXT( '', #27, 'design' );
#2 = APPLICATION_PROTOCOL_DEFINITION( 'INTERNATIONAL STANDARD', 'config_control_design', 1994, #27 );
#3 = PRODUCT_CATEGORY_RELATIONSHIP( 'NONE', 'NONE', #28, #29 );
#4 = DATE_AND_TIME( #30, #31 );
#5 = DATE_TIME_ROLE( 'creation_date' );
#6 = DATE_TIME_ROLE( 'classification_date' );
#7 = PERSON_AND_ORGANIZATION_ROLE( 'creator' );
#8 = PERSON_AND_ORGANIZATION_ROLE( 'design_supplier' );
#9 = PERSON_AND_ORGANIZATION_ROLE( 'classification_officer' );
#10 = PERSON_AND_ORGANIZATION_ROLE( 'design_owner' );
#11 = APPROVAL_PERSON_ORGANIZATION( #32, #33, #34 );
#12 = APPROVAL_DATE_TIME( #4, #33 );
#13 = CC_DESIGN_APPROVAL( #33, ( #35, #36, #37 ) );
#14 = CC_DESIGN_DATE_AND_TIME_ASSIGNMENT( #4, #5, ( #37 ) );
#15 = CC_DESIGN_DATE_AND_TIME_ASSIGNMENT( #4, #6, ( #35 ) );
#16 = CC_DESIGN_PERSON_AND_ORGANIZATION_ASSIGNMENT( #32, #10, ( #38 ) );
#17 = CC_DESIGN_PERSON_AND_ORGANIZATION_ASSIGNMENT( #32, #7, ( #37 ) );
#18 = CC_DESIGN_PERSON_AND_ORGANIZATION_ASSIGNMENT( #32, #7, ( #36 ) );
#19 = CC_DESIGN_PERSON_AND_ORGANIZATION_ASSIGNMENT( #32, #8, ( #36 ) );
#20 = CC_DESIGN_SECURITY_CLASSIFICATION( #35, ( #36 ) );
#21 = CC_DESIGN_PERSON_AND_ORGANIZATION_ASSIGNMENT( #32, #9, ( #35 ) );
#22 = SHAPE_DEFINITION_REPRESENTATION( #39, #40 );
#23 =  ( GEOMETRIC_REPRESENTATION_CONTEXT( 3 )GLOBAL_UNCERTAINTY_ASSIGNED_CONTEXT( ( #43 ) )GLOBAL_UNIT_ASSIGNED_CONTEXT( ( #45, #46, #47 ) )REPRESENTATION_CONTEXT( 'NONE', 'WORKSPACE' ) );
#27 = APPLICATION_CONTEXT( 'CONFIGURATION CONTROLLED 3D DESIGNS OF MECHANICAL PARTS AND ASSEMBLIES' );
#28 = PRODUCT_CATEGORY( 'part', 'NONE' );
#29 = PRODUCT_RELATED_PRODUCT_CATEGORY( 'detail', ' ', ( #38 ) );
#30 = CALENDAR_DATE( 2009, 10, 10 );
#31 = LOCAL_TIME( 16, 7, 52.0000000000000, #49 );
#32 = PERSON_AND_ORGANIZATION( #50, #51 );
#33 = APPROVAL( #52, 'SOLID MODEL' );
#34 = APPROVAL_ROLE( 'APPROVED' );
#35 = SECURITY_CLASSIFICATION( '', '', #53 );
#36 = PRODUCT_DEFINITION_FORMATION_WITH_SPECIFIED_SOURCE( ' ', 'NONE', #38, .NOT_KNOWN. );
#37 = PRODUCT_DEFINITION( 'NONE', 'NONE', #36, #1 );
#38 = PRODUCT( '1', '1', 'PART-1-DESC', ( #54 ) );
#39 = PRODUCT_DEFINITION_SHAPE( 'NONE', 'NONE', #37 );
#40 = ADVANCED_BREP_SHAPE_REPRESENTATION( '1', ( #55, #56 ), #23 );
#43 = UNCERTAINTY_MEASURE_WITH_UNIT( LENGTH_MEASURE( 0.00100000000000000 ), #45, '', '' );
#45 =  ( CONVERSION_BASED_UNIT( 'MILLIMETRE', #59 )LENGTH_UNIT(  )NAMED_UNIT( #62 ) );
#46 =  ( NAMED_UNIT( #64 )PLANE_ANGLE_UNIT(  )SI_UNIT( $, .RADIAN. ) );
#47 =  ( NAMED_UNIT( #64 )SOLID_ANGLE_UNIT(  )SI_UNIT( $, .STERADIAN. ) );
#49 = COORDINATED_UNIVERSAL_TIME_OFFSET( 8, 0, .AHEAD. );
#50 = PERSON( '', 'UNSPECIFIED', $, $, $, $ );
#51 = ORGANIZATION( 'UNSPECIFIED', 'UNSPECIFIED', 'UNSPECIFIED' );
#52 = APPROVAL_STATUS( 'approved' );
#53 = SECURITY_CLASSIFICATION_LEVEL( 'unclassified' );
#54 = MECHANICAL_CONTEXT( '', #27, 'mechanical' );
#55 = MANIFOLD_SOLID_BREP( '1', #70 );
#56 = AXIS2_PLACEMENT_3D( '', #71, #72, #73 );
#59 = LENGTH_MEASURE_WITH_UNIT( LENGTH_MEASURE( 1.00000000000000 ), #74 );
#62 = DIMENSIONAL_EXPONENTS( 1.00000000000000, 0.000000000000000, 0.000000000000000, 0.000000000000000, 0.000000000000000, 0.000000000000000, 0.000000000000000 );
#64 = DIMENSIONAL_EXPONENTS( 0.000000000000000, 0.000000000000000, 0.000000000000000, 0.000000000000000, 0.000000000000000, 0.000000000000000, 0.000000000000000 );
#70 = CLOSED_SHELL( '', ( #75, #76, #77, #78, #79, #80, #81, #82, #83, #84, #85, #86, #87, #88, #89 ) );
#71 = CARTESIAN_POINT( '', ( 0.000000000000000, 0.000000000000000, 0.000000000000000 ) );
#72 = DIRECTION( '', ( 0.000000000000000, 0.000000000000000, 1.00000000000000 ) );
#73 = DIRECTION( '', ( 1.00000000000000, 0.000000000000000, 0.000000000000000 ) );
#74 =  ( NAMED_UNIT( #62 )LENGTH_UNIT(  )SI_UNIT( .MILLI., .METRE. ) );
#75 = ADVANCED_FACE( '', ( #91 ), #92, .T. );
#76 = ADVANCED_FACE( '', ( #93, #94 ), #95, .F. );
#77 = ADVANCED_FACE( '', ( #96, #97 ), #98, .F. );
#78 = ADVANCED_FACE( '', ( #99 ), #100, .F. );
#79 = ADVANCED_FACE( '', ( #101 ), #102, .F. );
#80 = ADVANCED_FACE( '', ( #103, #104 ), #105, .F. );
#81 = ADVANCED_FACE( '', ( #106, #107 ), #108, .F. );
#82 = ADVANCED_FACE( '', ( #109, #110 ), #111, .F. );
#83 = ADVANCED_FACE( '', ( #112 ), #113, .F. );
#84 = ADVANCED_FACE( '', ( #114 ), #115, .F. );
#85 = ADVANCED_FACE( '', ( #116 ), #117, .T. );
#86 = ADVANCED_FACE( '', ( #118 ), #119, .F. );
#87 = ADVANCED_FACE( '', ( #120 ), #121, .T. );
#88 = ADVANCED_FACE( '', ( #122 ), #123, .T. );
#89 = ADVANCED_FACE( '', ( #124 ), #125, .F. );
#91 = FACE_OUTER_BOUND( '', #126, .T. );
#92 = PLANE( '', #127 );
#93 = FACE_BOUND( '', #128, .T. );
#94 = FACE_OUTER_BOUND( '', #129, .T. );
#95 = CONICAL_SURFACE( '', #130, 8.00000000000000, 0.785398163397448 );
#96 = FACE_BOUND( '', #131, .T. );
#97 = FACE_OUTER_BOUND( '', #132, .T. );
#98 = PLANE( '', #133 );
#99 = FACE_OUTER_BOUND( '', #134, .T. );
#100 = PLANE( '', #135 );
#101 = FACE_OUTER_BOUND( '', #136, .T. );
#102 = PLANE( '', #137 );
#103 = FACE_OUTER_BOUND( '', #138, .T. );
#104 = FACE_OUTER_BOUND( '', #139, .T. );
#105 = CYLINDRICAL_SURFACE( '', #140, 7.00000000000000 );
#106 = FACE_BOUND( '', #141, .T. );
#107 = FACE_OUTER_BOUND( '', #142, .T. );
#108 = CONICAL_SURFACE( '', #143, 8.00000000000000, 0.785398163397448 );
#109 = FACE_BOUND( '', #144, .T. );
#110 = FACE_OUTER_BOUND( '', #145, .T. );
#111 = PLANE( '', #146 );
#112 = FACE_OUTER_BOUND( '', #147, .T. );
#113 = PLANE( '', #148 );
#114 = FACE_OUTER_BOUND( '', #149, .T. );
#115 = PLANE( '', #150 );
#116 = FACE_OUTER_BOUND( '', #151, .T. );
#117 = PLANE( '', #152 );
#118 = FACE_OUTER_BOUND( '', #153, .T. );
#119 = PLANE( '', #154 );
#120 = FACE_OUTER_BOUND( '', #155, .T. );
#121 = CYLINDRICAL_SURFACE( '', #156, 8.75000000000000 );
#122 = FACE_OUTER_BOUND( '', #157, .T. );
#123 = CYLINDRICAL_SURFACE( '', #158, 8.75000000000000 );
#124 = FACE_OUTER_BOUND( '', #159, .T. );
#125 = PLANE( '', #160 );
#126 = EDGE_LOOP( '', ( #161, #162, #163, #164, #165 ) );
#127 = AXIS2_PLACEMENT_3D( '', #166, #167, #168 );
#128 = EDGE_LOOP( '', ( #169 ) );
#129 = EDGE_LOOP( '', ( #170 ) );
#130 = AXIS2_PLACEMENT_3D( '', #171, #172, #173 );
#131 = EDGE_LOOP( '', ( #174 ) );
#132 = EDGE_LOOP( '', ( #175, #176, #177, #178, #179, #180 ) );
#133 = AXIS2_PLACEMENT_3D( '', #181, #182, #183 );
#134 = EDGE_LOOP( '', ( #184, #185, #186, #187 ) );
#135 = AXIS2_PLACEMENT_3D( '', #188, #189, #190 );
#136 = EDGE_LOOP( '', ( #191, #192, #193, #194, #195, #196, #197, #198 ) );
#137 = AXIS2_PLACEMENT_3D( '', #199, #200, #201 );
#138 = EDGE_LOOP( '', ( #202 ) );
#139 = EDGE_LOOP( '', ( #203 ) );
#140 = AXIS2_PLACEMENT_3D( '', #204, #205, #206 );
#141 = EDGE_LOOP( '', ( #207 ) );
#142 = EDGE_LOOP( '', ( #208 ) );
#143 = AXIS2_PLACEMENT_3D( '', #209, #210, #211 );
#144 = EDGE_LOOP( '', ( #212 ) );
#145 = EDGE_LOOP( '', ( #213, #214, #215, #216 ) );
#146 = AXIS2_PLACEMENT_3D( '', #217, #218, #219 );
#147 = EDGE_LOOP( '', ( #220, #221, #222, #223, #224, #225, #226, #227 ) );
#148 = AXIS2_PLACEMENT_3D( '', #228, #229, #230 );
#149 = EDGE_LOOP( '', ( #231, #232, #233, #234 ) );
#150 = AXIS2_PLACEMENT_3D( '', #235, #236, #237 );
#151 = EDGE_LOOP( '', ( #238, #239, #240, #241, #242 ) );
#152 = AXIS2_PLACEMENT_3D( '', #243, #244, #245 );
#153 = EDGE_LOOP( '', ( #246, #247, #248, #249 ) );
#154 = AXIS2_PLACEMENT_3D( '', #250, #251, #252 );
#155 = EDGE_LOOP( '', ( #253, #254, #255, #256 ) );
#156 = AXIS2_PLACEMENT_3D( '', #257, #258, #259 );
#157 = EDGE_LOOP( '', ( #260, #261, #262, #263 ) );
#158 = AXIS2_PLACEMENT_3D( '', #264, #265, #266 );
#159 = EDGE_LOOP( '', ( #267, #268, #269, #270 ) );
#160 = AXIS2_PLACEMENT_3D( '', #271, #272, #273 );
#161 = ORIENTED_EDGE( '', *, *, #274, .T. );
#162 = ORIENTED_EDGE( '', *, *, #275, .T. );
#163 = ORIENTED_EDGE( '', *, *, #276, .T. );
#164 = ORIENTED_EDGE( '', *, *, #277, .T. );
#165 = ORIENTED_EDGE( '', *, *, #278, .T. );
#166 = CARTESIAN_POINT( '', ( -21.5062975273116, -8.75000000000000, 11.1000000000000 ) );
#167 = DIRECTION( '', ( 0.000000000000000, 0.000000000000000, 1.00000000000000 ) );
#168 = DIRECTION( '', ( 1.00000000000000, 0.000000000000000, 0.000000000000000 ) );
#169 = ORIENTED_EDGE( '', *, *, #279, .F. );
#170 = ORIENTED_EDGE( '', *, *, #280, .F. );
#171 = CARTESIAN_POINT( '', ( 6.28837260041593E-015, -4.33680868994202E-016, 19.0000000000000 ) );
#172 = DIRECTION( '', ( -0.000000000000000, -0.000000000000000, 1.00000000000000 ) );
#173 = DIRECTION( '', ( 1.00000000000000, 0.000000000000000, 0.000000000000000 ) );
#174 = ORIENTED_EDGE( '', *, *, #280, .T. );
#175 = ORIENTED_EDGE( '', *, *, #281, .T. );
#176 = ORIENTED_EDGE( '', *, *, #282, .T. );
#177 = ORIENTED_EDGE( '', *, *, #283, .T. );
#178 = ORIENTED_EDGE( '', *, *, #284, .T. );
#179 = ORIENTED_EDGE( '', *, *, #285, .T. );
#180 = ORIENTED_EDGE( '', *, *, #286, .T. );
#181 = CARTESIAN_POINT( '', ( 15.3286496469846, 8.75000000000000, 19.0000000000000 ) );
#182 = DIRECTION( '', ( 0.000000000000000, 0.000000000000000, -1.00000000000000 ) );
#183 = DIRECTION( '', ( -1.00000000000000, 0.000000000000000, 0.000000000000000 ) );
#184 = ORIENTED_EDGE( '', *, *, #286, .F. );
#185 = ORIENTED_EDGE( '', *, *, #287, .T. );
#186 = ORIENTED_EDGE( '', *, *, #275, .F. );
#187 = ORIENTED_EDGE( '', *, *, #288, .F. );
#188 = CARTESIAN_POINT( '', ( -5.22501993616613, 8.75000000000000, 19.0000000000000 ) );
#189 = DIRECTION( '', ( 0.866025403784439, -0.500000000000000, 0.000000000000000 ) );
#190 = DIRECTION( '', ( 0.500000000000000, 0.866025403784439, 0.000000000000000 ) );
#191 = ORIENTED_EDGE( '', *, *, #289, .F. );
#192 = ORIENTED_EDGE( '', *, *, #290, .T. );
#193 = ORIENTED_EDGE( '', *, *, #281, .F. );
#194 = ORIENTED_EDGE( '', *, *, #288, .T. );
#195 = ORIENTED_EDGE( '', *, *, #274, .F. );
#196 = ORIENTED_EDGE( '', *, *, #291, .T. );
#197 = ORIENTED_EDGE( '', *, *, #292, .T. );
#198 = ORIENTED_EDGE( '', *, *, #293, .F. );
#199 = CARTESIAN_POINT( '', ( -21.5062975273116, -8.75000000000000, 11.1000000000000 ) );
#200 = DIRECTION( '', ( 0.000000000000000, 1.00000000000000, 0.000000000000000 ) );
#201 = DIRECTION( '', ( 0.000000000000000, 0.000000000000000, 1.00000000000000 ) );
#202 = ORIENTED_EDGE( '', *, *, #294, .T. );
#203 = ORIENTED_EDGE( '', *, *, #279, .T. );
#204 = CARTESIAN_POINT( '', ( 6.28837260041593E-015, -4.33680868994202E-016, 19.0000000000000 ) );
#205 = DIRECTION( '', ( -0.000000000000000, -0.000000000000000, 1.00000000000000 ) );
#206 = DIRECTION( '', ( 0.000000000000000, -1.00000000000000, 0.000000000000000 ) );
#207 = ORIENTED_EDGE( '', *, *, #294, .F. );
#208 = ORIENTED_EDGE( '', *, *, #295, .F. );
#209 = CARTESIAN_POINT( '', ( 6.28837260041593E-015, -4.33680868994202E-016, 0.000000000000000 ) );
#210 = DIRECTION( '', ( -0.000000000000000, 0.000000000000000, -1.00000000000000 ) );
#211 = DIRECTION( '', ( -1.00000000000000, 0.000000000000000, 0.000000000000000 ) );
#212 = ORIENTED_EDGE( '', *, *, #295, .T. );
#213 = ORIENTED_EDGE( '', *, *, #296, .F. );
#214 = ORIENTED_EDGE( '', *, *, #292, .F. );
#215 = ORIENTED_EDGE( '', *, *, #297, .F. );
#216 = ORIENTED_EDGE( '', *, *, #298, .F. );
#217 = CARTESIAN_POINT( '', ( -21.5062975273116, -8.75000000000000, 0.000000000000000 ) );
#218 = DIRECTION( '', ( 0.000000000000000, 0.000000000000000, 1.00000000000000 ) );
#219 = DIRECTION( '', ( 1.00000000000000, 0.000000000000000, 0.000000000000000 ) );
#220 = ORIENTED_EDGE( '', *, *, #277, .F. );
#221 = ORIENTED_EDGE( '', *, *, #299, .T. );
#222 = ORIENTED_EDGE( '', *, *, #284, .F. );
#223 = ORIENTED_EDGE( '', *, *, #300, .T. );
#224 = ORIENTED_EDGE( '', *, *, #301, .F. );
#225 = ORIENTED_EDGE( '', *, *, #302, .T. );
#226 = ORIENTED_EDGE( '', *, *, #298, .T. );
#227 = ORIENTED_EDGE( '', *, *, #303, .F. );
#228 = CARTESIAN_POINT( '', ( 21.5062975273155, 8.75000000000000, 11.1000000000000 ) );
#229 = DIRECTION( '', ( 0.000000000000000, -1.00000000000000, 0.000000000000000 ) );
#230 = DIRECTION( '', ( 0.000000000000000, 0.000000000000000, -1.00000000000000 ) );
#231 = ORIENTED_EDGE( '', *, *, #296, .T. );
#232 = ORIENTED_EDGE( '', *, *, #302, .F. );
#233 = ORIENTED_EDGE( '', *, *, #304, .F. );
#234 = ORIENTED_EDGE( '', *, *, #293, .T. );
#235 = CARTESIAN_POINT( '', ( 11.4026678164970, -8.75000000000000, 11.1000000000000 ) );
#236 = DIRECTION( '', ( -0.866025403784439, 0.500000000000000, 0.000000000000000 ) );
#237 = DIRECTION( '', ( -0.500000000000000, -0.866025403784439, 0.000000000000000 ) );
#238 = ORIENTED_EDGE( '', *, *, #301, .T. );
#239 = ORIENTED_EDGE( '', *, *, #305, .T. );
#240 = ORIENTED_EDGE( '', *, *, #306, .T. );
#241 = ORIENTED_EDGE( '', *, *, #289, .T. );
#242 = ORIENTED_EDGE( '', *, *, #304, .T. );
#243 = CARTESIAN_POINT( '', ( -21.5062975273116, -8.75000000000000, 11.1000000000000 ) );
#244 = DIRECTION( '', ( 0.000000000000000, 0.000000000000000, 1.00000000000000 ) );
#245 = DIRECTION( '', ( 1.00000000000000, 0.000000000000000, 0.000000000000000 ) );
#246 = ORIENTED_EDGE( '', *, *, #297, .T. );
#247 = ORIENTED_EDGE( '', *, *, #291, .F. );
#248 = ORIENTED_EDGE( '', *, *, #278, .F. );
#249 = ORIENTED_EDGE( '', *, *, #303, .T. );
#250 = CARTESIAN_POINT( '', ( -21.5062975273116, -8.75000000000000, 11.1000000000000 ) );
#251 = DIRECTION( '', ( 0.866025403784439, -0.500000000000000, 0.000000000000000 ) );
#252 = DIRECTION( '', ( 0.500000000000000, 0.866025403784439, 0.000000000000000 ) );
#253 = ORIENTED_EDGE( '', *, *, #285, .F. );
#254 = ORIENTED_EDGE( '', *, *, #299, .F. );
#255 = ORIENTED_EDGE( '', *, *, #276, .F. );
#256 = ORIENTED_EDGE( '', *, *, #287, .F. );
#257 = CARTESIAN_POINT( '', ( -0.173205080756903, 6.93889390390723E-015, 19.0000000000000 ) );
#258 = DIRECTION( '', ( -0.000000000000000, -0.000000000000000, 1.00000000000000 ) );
#259 = DIRECTION( '', ( -1.00000000000000, 0.000000000000000, 0.000000000000000 ) );
#260 = ORIENTED_EDGE( '', *, *, #282, .F. );
#261 = ORIENTED_EDGE( '', *, *, #290, .F. );
#262 = ORIENTED_EDGE( '', *, *, #306, .F. );
#263 = ORIENTED_EDGE( '', *, *, #307, .F. );
#264 = CARTESIAN_POINT( '', ( 0.173205080756881, 6.93889390390723E-015, 19.0000000000000 ) );
#265 = DIRECTION( '', ( -0.000000000000000, -0.000000000000000, 1.00000000000000 ) );
#266 = DIRECTION( '', ( -1.00000000000000, 0.000000000000000, 0.000000000000000 ) );
#267 = ORIENTED_EDGE( '', *, *, #283, .F. );
#268 = ORIENTED_EDGE( '', *, *, #307, .T. );
#269 = ORIENTED_EDGE( '', *, *, #305, .F. );
#270 = ORIENTED_EDGE( '', *, *, #300, .F. );
#271 = CARTESIAN_POINT( '', ( 15.3286496469846, 8.75000000000000, 19.0000000000000 ) );
#272 = DIRECTION( '', ( -0.866025403784439, 0.500000000000000, 0.000000000000000 ) );
#273 = DIRECTION( '', ( -0.500000000000000, -0.866025403784439, 0.000000000000000 ) );
#274 = EDGE_CURVE( '', #308, #309, #310, .T. );
#275 = EDGE_CURVE( '', #309, #311, #312, .T. );
#276 = EDGE_CURVE( '', #311, #313, #314, .F. );
#277 = EDGE_CURVE( '', #313, #315, #316, .T. );
#278 = EDGE_CURVE( '', #315, #308, #317, .T. );
#279 = EDGE_CURVE( '', #318, #318, #319, .F. );
#280 = EDGE_CURVE( '', #320, #320, #321, .T. );
#281 = EDGE_CURVE( '', #322, #323, #324, .T. );
#282 = EDGE_CURVE( '', #323, #325, #326, .F. );
#283 = EDGE_CURVE( '', #325, #327, #328, .T. );
#284 = EDGE_CURVE( '', #327, #329, #330, .T. );
#285 = EDGE_CURVE( '', #329, #331, #332, .F. );
#286 = EDGE_CURVE( '', #331, #322, #333, .T. );
#287 = EDGE_CURVE( '', #331, #311, #334, .T. );
#288 = EDGE_CURVE( '', #322, #309, #335, .T. );
#289 = EDGE_CURVE( '', #336, #337, #338, .T. );
#290 = EDGE_CURVE( '', #336, #323, #339, .F. );
#291 = EDGE_CURVE( '', #308, #340, #341, .T. );
#292 = EDGE_CURVE( '', #340, #342, #343, .T. );
#293 = EDGE_CURVE( '', #337, #342, #344, .T. );
#294 = EDGE_CURVE( '', #345, #345, #346, .F. );
#295 = EDGE_CURVE( '', #347, #347, #348, .T. );
#296 = EDGE_CURVE( '', #342, #349, #350, .T. );
#297 = EDGE_CURVE( '', #351, #340, #352, .T. );
#298 = EDGE_CURVE( '', #349, #351, #353, .T. );
#299 = EDGE_CURVE( '', #313, #329, #354, .F. );
#300 = EDGE_CURVE( '', #327, #355, #356, .T. );
#301 = EDGE_CURVE( '', #357, #355, #358, .T. );
#302 = EDGE_CURVE( '', #357, #349, #359, .T. );
#303 = EDGE_CURVE( '', #315, #351, #360, .T. );
#304 = EDGE_CURVE( '', #337, #357, #361, .T. );
#305 = EDGE_CURVE( '', #355, #362, #363, .T. );
#306 = EDGE_CURVE( '', #362, #336, #364, .F. );
#307 = EDGE_CURVE( '', #325, #362, #365, .T. );
#308 = VERTEX_POINT( '', #366 );
#309 = VERTEX_POINT( '', #367 );
#310 = LINE( '', #368, #369 );
#311 = VERTEX_POINT( '', #370 );
#312 = LINE( '', #371, #372 );
#313 = VERTEX_POINT( '', #373 );
#314 = CIRCLE( '', #374, 8.75000000000000 );
#315 = VERTEX_POINT( '', #375 );
#316 = LINE( '', #376, #377 );
#317 = LINE( '', #378, #379 );
#318 = VERTEX_POINT( '', #380 );
#319 = CIRCLE( '', #381, 7.00000000000000 );
#320 = VERTEX_POINT( '', #382 );
#321 = CIRCLE( '', #383, 8.00000000000000 );
#322 = VERTEX_POINT( '', #384 );
#323 = VERTEX_POINT( '', #385 );
#324 = LINE( '', #386, #387 );
#325 = VERTEX_POINT( '', #388 );
#326 = CIRCLE( '', #389, 8.75000000000000 );
#327 = VERTEX_POINT( '', #390 );
#328 = LINE( '', #391, #392 );
#329 = VERTEX_POINT( '', #393 );
#330 = LINE( '', #394, #395 );
#331 = VERTEX_POINT( '', #396 );
#332 = CIRCLE( '', #397, 8.75000000000000 );
#333 = LINE( '', #398, #399 );
#334 = LINE( '', #400, #401 );
#335 = LINE( '', #402, #403 );
#336 = VERTEX_POINT( '', #404 );
#337 = VERTEX_POINT( '', #405 );
#338 = LINE( '', #406, #407 );
#339 = LINE( '', #408, #409 );
#340 = VERTEX_POINT( '', #410 );
#341 = LINE( '', #411, #412 );
#342 = VERTEX_POINT( '', #413 );
#343 = LINE( '', #414, #415 );
#344 = LINE( '', #416, #417 );
#345 = VERTEX_POINT( '', #418 );
#346 = CIRCLE( '', #419, 7.00000000000000 );
#347 = VERTEX_POINT( '', #420 );
#348 = CIRCLE( '', #421, 8.00000000000000 );
#349 = VERTEX_POINT( '', #422 );
#350 = LINE( '', #423, #424 );
#351 = VERTEX_POINT( '', #425 );
#352 = LINE( '', #426, #427 );
#353 = LINE( '', #428, #429 );
#354 = LINE( '', #430, #431 );
#355 = VERTEX_POINT( '', #432 );
#356 = LINE( '', #433, #434 );
#357 = VERTEX_POINT( '', #435 );
#358 = LINE( '', #436, #437 );
#359 = LINE( '', #438, #439 );
#360 = LINE( '', #440, #441 );
#361 = LINE( '', #442, #443 );
#362 = VERTEX_POINT( '', #444 );
#363 = LINE( '', #445, #446 );
#364 = CIRCLE( '', #447, 8.75000000000000 );
#365 = LINE( '', #448, #449 );
#366 = CARTESIAN_POINT( '', ( -21.5062975273116, -8.75000000000000, 11.1000000000000 ) );
#367 = CARTESIAN_POINT( '', ( -15.3286496469846, -8.75000000000000, 11.1000000000000 ) );
#368 = CARTESIAN_POINT( '', ( -21.5062975273116, -8.75000000000000, 11.1000000000000 ) );
#369 = VECTOR( '', #450, 1000.00000000000 );
#370 = CARTESIAN_POINT( '', ( -7.75092736387074, 4.37500000000000, 11.1000000000000 ) );
#371 = CARTESIAN_POINT( '', ( -16.8730616170664, -11.4249999999992, 11.1000000000000 ) );
#372 = VECTOR( '', #451, 1000.00000000000 );
#373 = CARTESIAN_POINT( '', ( -0.173205080756903, 8.75000000000000, 11.1000000000000 ) );
#374 = AXIS2_PLACEMENT_3D( '', #452, #453, #454 );
#375 = CARTESIAN_POINT( '', ( -11.4026678164932, 8.75000000000000, 11.1000000000000 ) );
#376 = CARTESIAN_POINT( '', ( 21.5062975273155, 8.75000000000000, 11.1000000000000 ) );
#377 = VECTOR( '', #455, 1000.00000000000 );
#378 = CARTESIAN_POINT( '', ( -21.5062975273116, -8.75000000000000, 11.1000000000000 ) );
#379 = VECTOR( '', #456, 1000.00000000000 );
#380 = CARTESIAN_POINT( '', ( -6.99999999999999, -4.33680868994202E-016, 18.0000000000000 ) );
#381 = AXIS2_PLACEMENT_3D( '', #457, #458, #459 );
#382 = CARTESIAN_POINT( '', ( -7.99999999999999, -4.33680868994202E-016, 19.0000000000000 ) );
#383 = AXIS2_PLACEMENT_3D( '', #460, #461, #462 );
#384 = CARTESIAN_POINT( '', ( -15.3286496469846, -8.75000000000000, 19.0000000000000 ) );
#385 = CARTESIAN_POINT( '', ( 0.173205080756881, -8.75000000000000, 19.0000000000000 ) );
#386 = CARTESIAN_POINT( '', ( 5.22501993616611, -8.75000000000000, 19.0000000000000 ) );
#387 = VECTOR( '', #463, 1000.00000000000 );
#388 = CARTESIAN_POINT( '', ( 7.75092736387072, -4.37500000000000, 19.0000000000000 ) );
#389 = AXIS2_PLACEMENT_3D( '', #464, #465, #466 );
#390 = CARTESIAN_POINT( '', ( 15.3286496469846, 8.75000000000000, 19.0000000000000 ) );
#391 = CARTESIAN_POINT( '', ( 15.3286496469846, 8.75000000000000, 19.0000000000000 ) );
#392 = VECTOR( '', #467, 1000.00000000000 );
#393 = CARTESIAN_POINT( '', ( -0.173205080756902, 8.75000000000000, 19.0000000000000 ) );
#394 = CARTESIAN_POINT( '', ( -5.22501993616613, 8.75000000000000, 19.0000000000000 ) );
#395 = VECTOR( '', #468, 1000.00000000000 );
#396 = CARTESIAN_POINT( '', ( -7.75092736387074, 4.37500000000000, 19.0000000000000 ) );
#397 = AXIS2_PLACEMENT_3D( '', #469, #470, #471 );
#398 = CARTESIAN_POINT( '', ( -5.22501993616613, 8.75000000000000, 19.0000000000000 ) );
#399 = VECTOR( '', #472, 1000.00000000000 );
#400 = CARTESIAN_POINT( '', ( -7.75092736387074, 4.37500000000000, 19.0000000000000 ) );
#401 = VECTOR( '', #473, 1000.00000000000 );
#402 = CARTESIAN_POINT( '', ( -15.3286496469846, -8.75000000000000, 19.0000000000000 ) );
#403 = VECTOR( '', #474, 1000.00000000000 );
#404 = CARTESIAN_POINT( '', ( 0.173205080756881, -8.75000000000000, 11.1000000000000 ) );
#405 = CARTESIAN_POINT( '', ( 11.4026678164970, -8.75000000000000, 11.1000000000000 ) );
#406 = CARTESIAN_POINT( '', ( -21.5062975273116, -8.75000000000000, 11.1000000000000 ) );
#407 = VECTOR( '', #475, 1000.00000000000 );
#408 = CARTESIAN_POINT( '', ( 0.173205080756879, -8.75000000000000, 11.1000000000000 ) );
#409 = VECTOR( '', #476, 1000.00000000000 );
#410 = CARTESIAN_POINT( '', ( -21.5062975273116, -8.75000000000000, 0.000000000000000 ) );
#411 = CARTESIAN_POINT( '', ( -21.5062975273116, -8.75000000000000, 11.1000000000000 ) );
#412 = VECTOR( '', #477, 1000.00000000000 );
#413 = CARTESIAN_POINT( '', ( 11.4026678164970, -8.75000000000000, 0.000000000000000 ) );
#414 = CARTESIAN_POINT( '', ( -21.5062975273116, -8.75000000000000, 0.000000000000000 ) );
#415 = VECTOR( '', #478, 1000.00000000000 );
#416 = CARTESIAN_POINT( '', ( 11.4026678164970, -8.75000000000000, 11.1000000000000 ) );
#417 = VECTOR( '', #479, 1000.00000000000 );
#418 = CARTESIAN_POINT( '', ( 7.00000000000001, -4.33680868994202E-016, 1.00000000000000 ) );
#419 = AXIS2_PLACEMENT_3D( '', #480, #481, #482 );
#420 = CARTESIAN_POINT( '', ( 8.00000000000001, -4.33680868994202E-016, 0.000000000000000 ) );
#421 = AXIS2_PLACEMENT_3D( '', #483, #484, #485 );
#422 = CARTESIAN_POINT( '', ( 21.5062975273155, 8.75000000000000, 0.000000000000000 ) );
#423 = CARTESIAN_POINT( '', ( 11.4026678164970, -8.75000000000000, 0.000000000000000 ) );
#424 = VECTOR( '', #486, 1000.00000000000 );
#425 = CARTESIAN_POINT( '', ( -11.4026678164932, 8.75000000000000, 0.000000000000000 ) );
#426 = CARTESIAN_POINT( '', ( -21.5062975273116, -8.75000000000000, 0.000000000000000 ) );
#427 = VECTOR( '', #487, 1000.00000000000 );
#428 = CARTESIAN_POINT( '', ( 21.5062975273155, 8.75000000000000, 0.000000000000000 ) );
#429 = VECTOR( '', #488, 1000.00000000000 );
#430 = CARTESIAN_POINT( '', ( -0.173205080756904, 8.75000000000000, 11.1000000000000 ) );
#431 = VECTOR( '', #489, 1000.00000000000 );
#432 = CARTESIAN_POINT( '', ( 15.3286496469846, 8.75000000000000, 11.1000000000000 ) );
#433 = CARTESIAN_POINT( '', ( 15.3286496469846, 8.75000000000000, 19.0000000000000 ) );
#434 = VECTOR( '', #490, 1000.00000000000 );
#435 = CARTESIAN_POINT( '', ( 21.5062975273155, 8.75000000000000, 11.1000000000000 ) );
#436 = CARTESIAN_POINT( '', ( 21.5062975273155, 8.75000000000000, 11.1000000000000 ) );
#437 = VECTOR( '', #491, 1000.00000000000 );
#438 = CARTESIAN_POINT( '', ( 21.5062975273155, 8.75000000000000, 11.1000000000000 ) );
#439 = VECTOR( '', #492, 1000.00000000000 );
#440 = CARTESIAN_POINT( '', ( -11.4026678164932, 8.75000000000000, 11.1000000000000 ) );
#441 = VECTOR( '', #493, 1000.00000000000 );
#442 = CARTESIAN_POINT( '', ( 11.4026678164970, -8.75000000000000, 11.1000000000000 ) );
#443 = VECTOR( '', #494, 1000.00000000000 );
#444 = CARTESIAN_POINT( '', ( 7.75092736387072, -4.37500000000000, 11.1000000000000 ) );
#445 = CARTESIAN_POINT( '', ( -1.45780942970333, -20.3249999999992, 11.1000000000000 ) );
#446 = VECTOR( '', #495, 1000.00000000000 );
#447 = AXIS2_PLACEMENT_3D( '', #496, #497, #498 );
#448 = CARTESIAN_POINT( '', ( 7.75092736387072, -4.37500000000000, 19.0000000000000 ) );
#449 = VECTOR( '', #499, 1000.00000000000 );
#450 = DIRECTION( '', ( 1.00000000000000, 0.000000000000000, 0.000000000000000 ) );
#451 = DIRECTION( '', ( 0.500000000000000, 0.866025403784439, 0.000000000000000 ) );
#452 = CARTESIAN_POINT( '', ( -0.173205080756903, 6.93889390390723E-015, 11.1000000000000 ) );
#453 = DIRECTION( '', ( 0.000000000000000, 0.000000000000000, 1.00000000000000 ) );
#454 = DIRECTION( '', ( 1.00000000000000, 0.000000000000000, 0.000000000000000 ) );
#455 = DIRECTION( '', ( -1.00000000000000, 0.000000000000000, 0.000000000000000 ) );
#456 = DIRECTION( '', ( -0.500000000000000, -0.866025403784439, 0.000000000000000 ) );
#457 = CARTESIAN_POINT( '', ( 6.28837260041593E-015, -4.33680868994202E-016, 18.0000000000000 ) );
#458 = DIRECTION( '', ( 0.000000000000000, 0.000000000000000, -1.00000000000000 ) );
#459 = DIRECTION( '', ( -1.00000000000000, 0.000000000000000, 0.000000000000000 ) );
#460 = CARTESIAN_POINT( '', ( 6.28837260041593E-015, -4.33680868994202E-016, 19.0000000000000 ) );
#461 = DIRECTION( '', ( 0.000000000000000, 0.000000000000000, -1.00000000000000 ) );
#462 = DIRECTION( '', ( -1.00000000000000, 0.000000000000000, 0.000000000000000 ) );
#463 = DIRECTION( '', ( 1.00000000000000, 1.68799393116534E-016, 0.000000000000000 ) );
#464 = CARTESIAN_POINT( '', ( 0.173205080756881, 6.93889390390723E-015, 19.0000000000000 ) );
#465 = DIRECTION( '', ( 0.000000000000000, 0.000000000000000, -1.00000000000000 ) );
#466 = DIRECTION( '', ( -1.00000000000000, 0.000000000000000, 0.000000000000000 ) );
#467 = DIRECTION( '', ( 0.500000000000000, 0.866025403784439, 0.000000000000000 ) );
#468 = DIRECTION( '', ( -1.00000000000000, -1.68799393116534E-016, 0.000000000000000 ) );
#469 = CARTESIAN_POINT( '', ( -0.173205080756903, 6.93889390390723E-015, 19.0000000000000 ) );
#470 = DIRECTION( '', ( 0.000000000000000, 0.000000000000000, -1.00000000000000 ) );
#471 = DIRECTION( '', ( -1.00000000000000, 0.000000000000000, 0.000000000000000 ) );
#472 = DIRECTION( '', ( -0.500000000000000, -0.866025403784439, 0.000000000000000 ) );
#473 = DIRECTION( '', ( 0.000000000000000, 0.000000000000000, -1.00000000000000 ) );
#474 = DIRECTION( '', ( 0.000000000000000, 0.000000000000000, -1.00000000000000 ) );
#475 = DIRECTION( '', ( 1.00000000000000, 0.000000000000000, 0.000000000000000 ) );
#476 = DIRECTION( '', ( 0.000000000000000, 0.000000000000000, -1.00000000000000 ) );
#477 = DIRECTION( '', ( 0.000000000000000, 0.000000000000000, -1.00000000000000 ) );
#478 = DIRECTION( '', ( 1.00000000000000, 0.000000000000000, 0.000000000000000 ) );
#479 = DIRECTION( '', ( 0.000000000000000, 0.000000000000000, -1.00000000000000 ) );
#480 = CARTESIAN_POINT( '', ( 6.28837260041593E-015, -4.33680868994202E-016, 1.00000000000000 ) );
#481 = DIRECTION( '', ( 0.000000000000000, 0.000000000000000, 1.00000000000000 ) );
#482 = DIRECTION( '', ( 1.00000000000000, 0.000000000000000, 0.000000000000000 ) );
#483 = CARTESIAN_POINT( '', ( 6.28837260041593E-015, -4.33680868994202E-016, 0.000000000000000 ) );
#484 = DIRECTION( '', ( 0.000000000000000, 0.000000000000000, 1.00000000000000 ) );
#485 = DIRECTION( '', ( 1.00000000000000, 0.000000000000000, 0.000000000000000 ) );
#486 = DIRECTION( '', ( 0.500000000000000, 0.866025403784439, 0.000000000000000 ) );
#487 = DIRECTION( '', ( -0.500000000000000, -0.866025403784439, 0.000000000000000 ) );
#488 = DIRECTION( '', ( -1.00000000000000, 0.000000000000000, 0.000000000000000 ) );
#489 = DIRECTION( '', ( 0.000000000000000, 0.000000000000000, -1.00000000000000 ) );
#490 = DIRECTION( '', ( 0.000000000000000, 0.000000000000000, -1.00000000000000 ) );
#491 = DIRECTION( '', ( -1.00000000000000, 0.000000000000000, 0.000000000000000 ) );
#492 = DIRECTION( '', ( 0.000000000000000, 0.000000000000000, -1.00000000000000 ) );
#493 = DIRECTION( '', ( 0.000000000000000, 0.000000000000000, -1.00000000000000 ) );
#494 = DIRECTION( '', ( 0.500000000000000, 0.866025403784439, 0.000000000000000 ) );
#495 = DIRECTION( '', ( -0.500000000000000, -0.866025403784439, 0.000000000000000 ) );
#496 = CARTESIAN_POINT( '', ( 0.173205080756881, 6.93889390390723E-015, 11.1000000000000 ) );
#497 = DIRECTION( '', ( 0.000000000000000, 0.000000000000000, 1.00000000000000 ) );
#498 = DIRECTION( '', ( 1.00000000000000, 0.000000000000000, 0.000000000000000 ) );
#499 = DIRECTION( '', ( 0.000000000000000, 0.000000000000000, -1.00000000000000 ) );
ENDSEC;
END-ISO-10303-21;
