ISO-10303-21;
HEADER;
FILE_DESCRIPTION( ( 'Unknown' ), '1' );
FILE_NAME( 'S:/LEAVE 2D&3D CAD/LEAVE 3D-STEP/Metric/PT-3D/PT50-3D/PT50-1218.stp', 'Unknown', ( 'Unknown' ), ( 'Unknown' ), 'PSStep 16.0.42', 'Unknown', '  ' );
FILE_SCHEMA( ( 'AUTOMOTIVE_DESIGN { 1 0 10303 214 1 1 1 1 }' ) );
ENDSEC;
DATA;
#1 = MECHANICAL_DESIGN_GEOMETRIC_PRESENTATION_REPRESENTATION( ' ', ( #10, #11, #12, #13, #14, #15, #16, #17, #18, #19, #20, #21, #22, #23 ), #6 );
#2 = PRODUCT_DEFINITION_CONTEXT( '', #24, 'design' );
#3 = APPLICATION_PROTOCOL_DEFINITION( 'international standard', 'automotive_design', 2001, #24 );
#4 = PRODUCT_CATEGORY_RELATIONSHIP( 'NONE', 'NONE', #25, #26 );
#5 = SHAPE_DEFINITION_REPRESENTATION( #27, #28 );
#6 =  ( GEOMETRIC_REPRESENTATION_CONTEXT( 3 )GLOBAL_UNCERTAINTY_ASSIGNED_CONTEXT( ( #31 ) )GLOBAL_UNIT_ASSIGNED_CONTEXT( ( #33, #34, #35 ) )REPRESENTATION_CONTEXT( 'NONE', 'WORKSPACE' ) );
#10 = STYLED_ITEM( '', ( #37 ), #38 );
#11 = STYLED_ITEM( '', ( #39 ), #40 );
#12 = STYLED_ITEM( '', ( #41 ), #42 );
#13 = STYLED_ITEM( '', ( #43 ), #44 );
#14 = STYLED_ITEM( '', ( #45 ), #46 );
#15 = STYLED_ITEM( '', ( #47 ), #48 );
#16 = STYLED_ITEM( '', ( #49 ), #50 );
#17 = STYLED_ITEM( '', ( #51 ), #52 );
#18 = STYLED_ITEM( '', ( #53 ), #54 );
#19 = STYLED_ITEM( '', ( #55 ), #56 );
#20 = STYLED_ITEM( '', ( #57 ), #58 );
#21 = STYLED_ITEM( '', ( #59 ), #60 );
#22 = STYLED_ITEM( '', ( #61 ), #62 );
#23 = STYLED_ITEM( '', ( #63 ), #64 );
#24 = APPLICATION_CONTEXT( 'core data for automotive mechanical design processes' );
#25 = PRODUCT_CATEGORY( 'part', 'NONE' );
#26 = PRODUCT_RELATED_PRODUCT_CATEGORY( 'detail', ' ', ( #65 ) );
#27 = PRODUCT_DEFINITION_SHAPE( 'NONE', 'NONE', #66 );
#28 = ADVANCED_BREP_SHAPE_REPRESENTATION( '1', ( #67, #68 ), #6 );
#31 = UNCERTAINTY_MEASURE_WITH_UNIT( LENGTH_MEASURE( 0.00100000000000000 ), #33, '', '' );
#33 =  ( CONVERSION_BASED_UNIT( 'MILLIMETRE', #71 )LENGTH_UNIT(  )NAMED_UNIT( #74 ) );
#34 =  ( NAMED_UNIT( #76 )PLANE_ANGLE_UNIT(  )SI_UNIT( $, .RADIAN. ) );
#35 =  ( NAMED_UNIT( #76 )SI_UNIT( $, .STERADIAN. )SOLID_ANGLE_UNIT(  ) );
#37 = PRESENTATION_STYLE_ASSIGNMENT( ( #82 ) );
#38 = ADVANCED_FACE( '', ( #83 ), #84, .T. );
#39 = PRESENTATION_STYLE_ASSIGNMENT( ( #85 ) );
#40 = ADVANCED_FACE( '', ( #86, #87 ), #88, .F. );
#41 = PRESENTATION_STYLE_ASSIGNMENT( ( #89 ) );
#42 = ADVANCED_FACE( '', ( #90, #91 ), #92, .T. );
#43 = PRESENTATION_STYLE_ASSIGNMENT( ( #93 ) );
#44 = ADVANCED_FACE( '', ( #94, #95 ), #96, .T. );
#45 = PRESENTATION_STYLE_ASSIGNMENT( ( #97 ) );
#46 = ADVANCED_FACE( '', ( #98 ), #99, .T. );
#47 = PRESENTATION_STYLE_ASSIGNMENT( ( #100 ) );
#48 = ADVANCED_FACE( '', ( #101 ), #102, .T. );
#49 = PRESENTATION_STYLE_ASSIGNMENT( ( #103 ) );
#50 = ADVANCED_FACE( '', ( #104, #105 ), #106, .T. );
#51 = PRESENTATION_STYLE_ASSIGNMENT( ( #107 ) );
#52 = ADVANCED_FACE( '', ( #108 ), #109, .T. );
#53 = PRESENTATION_STYLE_ASSIGNMENT( ( #110 ) );
#54 = ADVANCED_FACE( '', ( #111, #112 ), #113, .T. );
#55 = PRESENTATION_STYLE_ASSIGNMENT( ( #114 ) );
#56 = ADVANCED_FACE( '', ( #115, #116 ), #117, .T. );
#57 = PRESENTATION_STYLE_ASSIGNMENT( ( #118 ) );
#58 = ADVANCED_FACE( '', ( #119, #120 ), #121, .T. );
#59 = PRESENTATION_STYLE_ASSIGNMENT( ( #122 ) );
#60 = ADVANCED_FACE( '', ( #123 ), #124, .T. );
#61 = PRESENTATION_STYLE_ASSIGNMENT( ( #125 ) );
#62 = ADVANCED_FACE( '', ( #126, #127 ), #128, .T. );
#63 = PRESENTATION_STYLE_ASSIGNMENT( ( #129 ) );
#64 = ADVANCED_FACE( '', ( #130 ), #131, .F. );
#65 = PRODUCT( '1', '1', 'PART-1-DESC', ( #132 ) );
#66 = PRODUCT_DEFINITION( 'NONE', 'NONE', #133, #2 );
#67 = MANIFOLD_SOLID_BREP( '1', #134 );
#68 = AXIS2_PLACEMENT_3D( '', #135, #136, #137 );
#71 = LENGTH_MEASURE_WITH_UNIT( LENGTH_MEASURE( 1.00000000000000 ), #138 );
#74 = DIMENSIONAL_EXPONENTS( 1.00000000000000, 0.000000000000000, 0.000000000000000, 0.000000000000000, 0.000000000000000, 0.000000000000000, 0.000000000000000 );
#76 = DIMENSIONAL_EXPONENTS( 0.000000000000000, 0.000000000000000, 0.000000000000000, 0.000000000000000, 0.000000000000000, 0.000000000000000, 0.000000000000000 );
#82 = SURFACE_STYLE_USAGE( .BOTH., #139 );
#83 = FACE_OUTER_BOUND( '', #140, .T. );
#84 = PLANE( '', #141 );
#85 = SURFACE_STYLE_USAGE( .BOTH., #142 );
#86 = FACE_BOUND( '', #143, .T. );
#87 = FACE_OUTER_BOUND( '', #144, .T. );
#88 = PLANE( '', #145 );
#89 = SURFACE_STYLE_USAGE( .BOTH., #146 );
#90 = FACE_BOUND( '', #147, .T. );
#91 = FACE_OUTER_BOUND( '', #148, .T. );
#92 = PLANE( '', #149 );
#93 = SURFACE_STYLE_USAGE( .BOTH., #150 );
#94 = FACE_OUTER_BOUND( '', #151, .T. );
#95 = FACE_OUTER_BOUND( '', #152, .T. );
#96 = CYLINDRICAL_SURFACE( '', #153, 10.0000000000000 );
#97 = SURFACE_STYLE_USAGE( .BOTH., #154 );
#98 = FACE_OUTER_BOUND( '', #155, .T. );
#99 = PLANE( '', #156 );
#100 = SURFACE_STYLE_USAGE( .BOTH., #157 );
#101 = FACE_OUTER_BOUND( '', #158, .T. );
#102 = PLANE( '', #159 );
#103 = SURFACE_STYLE_USAGE( .BOTH., #160 );
#104 = FACE_BOUND( '', #161, .T. );
#105 = FACE_OUTER_BOUND( '', #162, .T. );
#106 = CONICAL_SURFACE( '', #163, 10.0000000000000, 0.785393676856282 );
#107 = SURFACE_STYLE_USAGE( .BOTH., #164 );
#108 = FACE_OUTER_BOUND( '', #165, .T. );
#109 = PLANE( '', #166 );
#110 = SURFACE_STYLE_USAGE( .BOTH., #167 );
#111 = FACE_OUTER_BOUND( '', #168, .T. );
#112 = FACE_OUTER_BOUND( '', #169, .T. );
#113 = CYLINDRICAL_SURFACE( '', #170, 6.00000000000000 );
#114 = SURFACE_STYLE_USAGE( .BOTH., #171 );
#115 = FACE_BOUND( '', #172, .T. );
#116 = FACE_OUTER_BOUND( '', #173, .T. );
#117 = CONICAL_SURFACE( '', #174, 6.00000000000000, 0.785398163397448 );
#118 = SURFACE_STYLE_USAGE( .BOTH., #175 );
#119 = FACE_BOUND( '', #176, .T. );
#120 = FACE_OUTER_BOUND( '', #177, .T. );
#121 = CONICAL_SURFACE( '', #178, 8.10201703083385, 0.279252680319095 );
#122 = SURFACE_STYLE_USAGE( .BOTH., #179 );
#123 = FACE_OUTER_BOUND( '', #180, .T. );
#124 = PLANE( '', #181 );
#125 = SURFACE_STYLE_USAGE( .BOTH., #182 );
#126 = FACE_OUTER_BOUND( '', #183, .T. );
#127 = FACE_OUTER_BOUND( '', #184, .T. );
#128 = SPHERICAL_SURFACE( '', #185, 7.50000000000000 );
#129 = SURFACE_STYLE_USAGE( .BOTH., #186 );
#130 = FACE_OUTER_BOUND( '', #187, .T. );
#131 = PLANE( '', #188 );
#132 = PRODUCT_CONTEXT( '', #24, 'mechanical' );
#133 = PRODUCT_DEFINITION_FORMATION_WITH_SPECIFIED_SOURCE( ' ', 'NONE', #65, .NOT_KNOWN. );
#134 = CLOSED_SHELL( '', ( #62, #52, #44, #40, #42, #50, #58, #54, #64, #48, #38, #46, #60, #56 ) );
#135 = CARTESIAN_POINT( '', ( 0.000000000000000, 0.000000000000000, 0.000000000000000 ) );
#136 = DIRECTION( '', ( 0.000000000000000, 0.000000000000000, 1.00000000000000 ) );
#137 = DIRECTION( '', ( 1.00000000000000, 0.000000000000000, 0.000000000000000 ) );
#138 =  ( LENGTH_UNIT(  )NAMED_UNIT( #74 )SI_UNIT( .MILLI., .METRE. ) );
#139 = SURFACE_SIDE_STYLE( '', ( #190 ) );
#140 = EDGE_LOOP( '', ( #191, #192 ) );
#141 = AXIS2_PLACEMENT_3D( '', #193, #194, #195 );
#142 = SURFACE_SIDE_STYLE( '', ( #196 ) );
#143 = EDGE_LOOP( '', ( #197 ) );
#144 = EDGE_LOOP( '', ( #198, #199, #200, #201 ) );
#145 = AXIS2_PLACEMENT_3D( '', #202, #203, #204 );
#146 = SURFACE_SIDE_STYLE( '', ( #205 ) );
#147 = EDGE_LOOP( '', ( #206 ) );
#148 = EDGE_LOOP( '', ( #207 ) );
#149 = AXIS2_PLACEMENT_3D( '', #208, #209, #210 );
#150 = SURFACE_SIDE_STYLE( '', ( #211 ) );
#151 = EDGE_LOOP( '', ( #212 ) );
#152 = EDGE_LOOP( '', ( #213, #214, #215, #216, #217, #218, #219, #220 ) );
#153 = AXIS2_PLACEMENT_3D( '', #221, #222, #223 );
#154 = SURFACE_SIDE_STYLE( '', ( #224 ) );
#155 = EDGE_LOOP( '', ( #225, #226, #227, #228 ) );
#156 = AXIS2_PLACEMENT_3D( '', #229, #230, #231 );
#157 = SURFACE_SIDE_STYLE( '', ( #232 ) );
#158 = EDGE_LOOP( '', ( #233, #234, #235, #236 ) );
#159 = AXIS2_PLACEMENT_3D( '', #237, #238, #239 );
#160 = SURFACE_SIDE_STYLE( '', ( #240 ) );
#161 = EDGE_LOOP( '', ( #241 ) );
#162 = EDGE_LOOP( '', ( #242 ) );
#163 = AXIS2_PLACEMENT_3D( '', #243, #244, #245 );
#164 = SURFACE_SIDE_STYLE( '', ( #246 ) );
#165 = EDGE_LOOP( '', ( #247 ) );
#166 = AXIS2_PLACEMENT_3D( '', #248, #249, #250 );
#167 = SURFACE_SIDE_STYLE( '', ( #251 ) );
#168 = EDGE_LOOP( '', ( #252 ) );
#169 = EDGE_LOOP( '', ( #253 ) );
#170 = AXIS2_PLACEMENT_3D( '', #254, #255, #256 );
#171 = SURFACE_SIDE_STYLE( '', ( #257 ) );
#172 = EDGE_LOOP( '', ( #258 ) );
#173 = EDGE_LOOP( '', ( #259 ) );
#174 = AXIS2_PLACEMENT_3D( '', #260, #261, #262 );
#175 = SURFACE_SIDE_STYLE( '', ( #263 ) );
#176 = EDGE_LOOP( '', ( #264 ) );
#177 = EDGE_LOOP( '', ( #265 ) );
#178 = AXIS2_PLACEMENT_3D( '', #266, #267, #268 );
#179 = SURFACE_SIDE_STYLE( '', ( #269 ) );
#180 = EDGE_LOOP( '', ( #270, #271 ) );
#181 = AXIS2_PLACEMENT_3D( '', #272, #273, #274 );
#182 = SURFACE_SIDE_STYLE( '', ( #275 ) );
#183 = EDGE_LOOP( '', ( #276 ) );
#184 = EDGE_LOOP( '', ( #277 ) );
#185 = AXIS2_PLACEMENT_3D( '', #278, #279, #280 );
#186 = SURFACE_SIDE_STYLE( '', ( #281 ) );
#187 = EDGE_LOOP( '', ( #282 ) );
#188 = AXIS2_PLACEMENT_3D( '', #283, #284, #285 );
#190 = SURFACE_STYLE_FILL_AREA( #286 );
#191 = ORIENTED_EDGE( '', *, *, #287, .T. );
#192 = ORIENTED_EDGE( '', *, *, #288, .T. );
#193 = CARTESIAN_POINT( '', ( 10.0000000000000, -10.0000000000000, 7.80000000000000 ) );
#194 = DIRECTION( '', ( 0.000000000000000, 0.000000000000000, -1.00000000000000 ) );
#195 = DIRECTION( '', ( -1.00000000000000, 0.000000000000000, 0.000000000000000 ) );
#196 = SURFACE_STYLE_FILL_AREA( #289 );
#197 = ORIENTED_EDGE( '', *, *, #290, .T. );
#198 = ORIENTED_EDGE( '', *, *, #291, .T. );
#199 = ORIENTED_EDGE( '', *, *, #292, .F. );
#200 = ORIENTED_EDGE( '', *, *, #293, .F. );
#201 = ORIENTED_EDGE( '', *, *, #294, .F. );
#202 = CARTESIAN_POINT( '', ( 6.93889390390723E-015, 0.000000000000000, 0.000000000000000 ) );
#203 = DIRECTION( '', ( 0.000000000000000, 0.000000000000000, 1.00000000000000 ) );
#204 = DIRECTION( '', ( 1.00000000000000, 0.000000000000000, 0.000000000000000 ) );
#205 = SURFACE_STYLE_FILL_AREA( #295 );
#206 = ORIENTED_EDGE( '', *, *, #296, .F. );
#207 = ORIENTED_EDGE( '', *, *, #297, .F. );
#208 = CARTESIAN_POINT( '', ( 6.93889390390723E-015, 0.000000000000000, 15.7000000000000 ) );
#209 = DIRECTION( '', ( 0.000000000000000, 0.000000000000000, 1.00000000000000 ) );
#210 = DIRECTION( '', ( 1.00000000000000, 0.000000000000000, 0.000000000000000 ) );
#211 = SURFACE_STYLE_FILL_AREA( #298 );
#212 = ORIENTED_EDGE( '', *, *, #299, .T. );
#213 = ORIENTED_EDGE( '', *, *, #300, .F. );
#214 = ORIENTED_EDGE( '', *, *, #301, .F. );
#215 = ORIENTED_EDGE( '', *, *, #302, .F. );
#216 = ORIENTED_EDGE( '', *, *, #294, .T. );
#217 = ORIENTED_EDGE( '', *, *, #303, .F. );
#218 = ORIENTED_EDGE( '', *, *, #288, .F. );
#219 = ORIENTED_EDGE( '', *, *, #304, .F. );
#220 = ORIENTED_EDGE( '', *, *, #292, .T. );
#221 = CARTESIAN_POINT( '', ( 6.93889390390723E-015, 0.000000000000000, 15.7000000000000 ) );
#222 = DIRECTION( '', ( -0.000000000000000, -0.000000000000000, 1.00000000000000 ) );
#223 = DIRECTION( '', ( -1.00000000000000, 0.000000000000000, 0.000000000000000 ) );
#224 = SURFACE_STYLE_FILL_AREA( #305 );
#225 = ORIENTED_EDGE( '', *, *, #300, .T. );
#226 = ORIENTED_EDGE( '', *, *, #291, .F. );
#227 = ORIENTED_EDGE( '', *, *, #302, .T. );
#228 = ORIENTED_EDGE( '', *, *, #306, .T. );
#229 = CARTESIAN_POINT( '', ( -8.50000000000000, -10.0000000000000, 0.000000000000000 ) );
#230 = DIRECTION( '', ( -1.00000000000000, 0.000000000000000, 0.000000000000000 ) );
#231 = DIRECTION( '', ( 0.000000000000000, 0.000000000000000, 1.00000000000000 ) );
#232 = SURFACE_STYLE_FILL_AREA( #307 );
#233 = ORIENTED_EDGE( '', *, *, #303, .T. );
#234 = ORIENTED_EDGE( '', *, *, #293, .T. );
#235 = ORIENTED_EDGE( '', *, *, #304, .T. );
#236 = ORIENTED_EDGE( '', *, *, #287, .F. );
#237 = CARTESIAN_POINT( '', ( 8.50000000000000, -10.0000000000000, 7.80000000000000 ) );
#238 = DIRECTION( '', ( 1.00000000000000, 0.000000000000000, 2.22400445638052E-016 ) );
#239 = DIRECTION( '', ( 2.22400445638052E-016, 0.000000000000000, -1.00000000000000 ) );
#240 = SURFACE_STYLE_FILL_AREA( #308 );
#241 = ORIENTED_EDGE( '', *, *, #309, .T. );
#242 = ORIENTED_EDGE( '', *, *, #299, .F. );
#243 = CARTESIAN_POINT( '', ( 0.000000000000000, 0.000000000000000, 12.4000000000000 ) );
#244 = DIRECTION( '', ( -0.000000000000000, 0.000000000000000, -1.00000000000000 ) );
#245 = DIRECTION( '', ( -1.00000000000000, 0.000000000000000, 0.000000000000000 ) );
#246 = SURFACE_STYLE_FILL_AREA( #310 );
#247 = ORIENTED_EDGE( '', *, *, #311, .T. );
#248 = CARTESIAN_POINT( '', ( 0.000000000000000, 0.000000000000000, 18.0000000000000 ) );
#249 = DIRECTION( '', ( 0.000000000000000, 0.000000000000000, 1.00000000000000 ) );
#250 = DIRECTION( '', ( 1.00000000000000, 0.000000000000000, 0.000000000000000 ) );
#251 = SURFACE_STYLE_FILL_AREA( #312 );
#252 = ORIENTED_EDGE( '', *, *, #313, .T. );
#253 = ORIENTED_EDGE( '', *, *, #290, .F. );
#254 = CARTESIAN_POINT( '', ( 0.000000000000000, 0.000000000000000, -12.0000000000000 ) );
#255 = DIRECTION( '', ( -0.000000000000000, -0.000000000000000, -1.00000000000000 ) );
#256 = DIRECTION( '', ( 1.00000000000000, 0.000000000000000, 0.000000000000000 ) );
#257 = SURFACE_STYLE_FILL_AREA( #314 );
#258 = ORIENTED_EDGE( '', *, *, #315, .F. );
#259 = ORIENTED_EDGE( '', *, *, #313, .F. );
#260 = CARTESIAN_POINT( '', ( 0.000000000000000, 0.000000000000000, -10.0000000000000 ) );
#261 = DIRECTION( '', ( -0.000000000000000, -0.000000000000000, 1.00000000000000 ) );
#262 = DIRECTION( '', ( 1.00000000000000, 0.000000000000000, 0.000000000000000 ) );
#263 = SURFACE_STYLE_FILL_AREA( #316 );
#264 = ORIENTED_EDGE( '', *, *, #297, .T. );
#265 = ORIENTED_EDGE( '', *, *, #309, .F. );
#266 = CARTESIAN_POINT( '', ( 0.000000000000000, 0.000000000000000, 14.2980000000000 ) );
#267 = DIRECTION( '', ( -0.000000000000000, 0.000000000000000, -1.00000000000000 ) );
#268 = DIRECTION( '', ( -1.00000000000000, 0.000000000000000, 0.000000000000000 ) );
#269 = SURFACE_STYLE_FILL_AREA( #317 );
#270 = ORIENTED_EDGE( '', *, *, #301, .T. );
#271 = ORIENTED_EDGE( '', *, *, #306, .F. );
#272 = CARTESIAN_POINT( '', ( -8.50000000000000, -10.0000000000000, 7.80000000000000 ) );
#273 = DIRECTION( '', ( 0.000000000000000, 0.000000000000000, -1.00000000000000 ) );
#274 = DIRECTION( '', ( -1.00000000000000, 0.000000000000000, 0.000000000000000 ) );
#275 = SURFACE_STYLE_FILL_AREA( #318 );
#276 = ORIENTED_EDGE( '', *, *, #296, .T. );
#277 = ORIENTED_EDGE( '', *, *, #311, .F. );
#278 = CARTESIAN_POINT( '', ( 5.08228421646152E-015, 0.000000000000000, 12.5000000000000 ) );
#279 = DIRECTION( '', ( 0.000000000000000, 0.000000000000000, 1.00000000000000 ) );
#280 = DIRECTION( '', ( 1.00000000000000, 0.000000000000000, 0.000000000000000 ) );
#281 = SURFACE_STYLE_FILL_AREA( #319 );
#282 = ORIENTED_EDGE( '', *, *, #315, .T. );
#283 = CARTESIAN_POINT( '', ( 0.000000000000000, 0.000000000000000, -12.0000000000000 ) );
#284 = DIRECTION( '', ( 0.000000000000000, 0.000000000000000, 1.00000000000000 ) );
#285 = DIRECTION( '', ( 1.00000000000000, 0.000000000000000, 0.000000000000000 ) );
#286 = FILL_AREA_STYLE( '', ( #320 ) );
#287 = EDGE_CURVE( '', #321, #322, #323, .T. );
#288 = EDGE_CURVE( '', #322, #321, #324, .T. );
#289 = FILL_AREA_STYLE( '', ( #325 ) );
#290 = EDGE_CURVE( '', #326, #326, #327, .T. );
#291 = EDGE_CURVE( '', #328, #329, #330, .T. );
#292 = EDGE_CURVE( '', #331, #329, #332, .T. );
#293 = EDGE_CURVE( '', #333, #331, #334, .T. );
#294 = EDGE_CURVE( '', #328, #333, #335, .T. );
#295 = FILL_AREA_STYLE( '', ( #336 ) );
#296 = EDGE_CURVE( '', #337, #337, #338, .T. );
#297 = EDGE_CURVE( '', #339, #339, #340, .T. );
#298 = FILL_AREA_STYLE( '', ( #341 ) );
#299 = EDGE_CURVE( '', #342, #342, #343, .T. );
#300 = EDGE_CURVE( '', #344, #329, #345, .T. );
#301 = EDGE_CURVE( '', #346, #344, #347, .T. );
#302 = EDGE_CURVE( '', #328, #346, #348, .F. );
#303 = EDGE_CURVE( '', #321, #333, #349, .T. );
#304 = EDGE_CURVE( '', #331, #322, #350, .F. );
#305 = FILL_AREA_STYLE( '', ( #351 ) );
#306 = EDGE_CURVE( '', #346, #344, #352, .T. );
#307 = FILL_AREA_STYLE( '', ( #353 ) );
#308 = FILL_AREA_STYLE( '', ( #354 ) );
#309 = EDGE_CURVE( '', #355, #355, #356, .T. );
#310 = FILL_AREA_STYLE( '', ( #357 ) );
#311 = EDGE_CURVE( '', #358, #358, #359, .T. );
#312 = FILL_AREA_STYLE( '', ( #360 ) );
#313 = EDGE_CURVE( '', #361, #361, #362, .T. );
#314 = FILL_AREA_STYLE( '', ( #363 ) );
#315 = EDGE_CURVE( '', #364, #364, #365, .F. );
#316 = FILL_AREA_STYLE( '', ( #366 ) );
#317 = FILL_AREA_STYLE( '', ( #367 ) );
#318 = FILL_AREA_STYLE( '', ( #368 ) );
#319 = FILL_AREA_STYLE( '', ( #369 ) );
#320 = FILL_AREA_STYLE_COLOUR( '', #370 );
#321 = VERTEX_POINT( '', #371 );
#322 = VERTEX_POINT( '', #372 );
#323 = LINE( '', #373, #374 );
#324 = CIRCLE( '', #375, 10.0000000000000 );
#325 = FILL_AREA_STYLE_COLOUR( '', #376 );
#326 = VERTEX_POINT( '', #377 );
#327 = CIRCLE( '', #378, 6.00000000000000 );
#328 = VERTEX_POINT( '', #379 );
#329 = VERTEX_POINT( '', #380 );
#330 = LINE( '', #381, #382 );
#331 = VERTEX_POINT( '', #383 );
#332 = CIRCLE( '', #384, 10.0000000000000 );
#333 = VERTEX_POINT( '', #385 );
#334 = LINE( '', #386, #387 );
#335 = CIRCLE( '', #388, 10.0000000000000 );
#336 = FILL_AREA_STYLE_COLOUR( '', #389 );
#337 = VERTEX_POINT( '', #390 );
#338 = CIRCLE( '', #391, 6.78306715284464 );
#339 = VERTEX_POINT( '', #392 );
#340 = CIRCLE( '', #393, 7.70000000000000 );
#341 = FILL_AREA_STYLE_COLOUR( '', #394 );
#342 = VERTEX_POINT( '', #395 );
#343 = CIRCLE( '', #396, 10.0000000000000 );
#344 = VERTEX_POINT( '', #397 );
#345 = LINE( '', #398, #399 );
#346 = VERTEX_POINT( '', #400 );
#347 = CIRCLE( '', #401, 10.0000000000000 );
#348 = LINE( '', #402, #403 );
#349 = LINE( '', #404, #405 );
#350 = LINE( '', #406, #407 );
#351 = FILL_AREA_STYLE_COLOUR( '', #408 );
#352 = LINE( '', #409, #410 );
#353 = FILL_AREA_STYLE_COLOUR( '', #411 );
#354 = FILL_AREA_STYLE_COLOUR( '', #412 );
#355 = VERTEX_POINT( '', #413 );
#356 = CIRCLE( '', #414, 8.10201703083385 );
#357 = FILL_AREA_STYLE_COLOUR( '', #415 );
#358 = VERTEX_POINT( '', #416 );
#359 = CIRCLE( '', #417, 5.09901951359279 );
#360 = FILL_AREA_STYLE_COLOUR( '', #418 );
#361 = VERTEX_POINT( '', #419 );
#362 = CIRCLE( '', #420, 6.00000000000000 );
#363 = FILL_AREA_STYLE_COLOUR( '', #421 );
#364 = VERTEX_POINT( '', #422 );
#365 = CIRCLE( '', #423, 4.00000000000000 );
#366 = FILL_AREA_STYLE_COLOUR( '', #424 );
#367 = FILL_AREA_STYLE_COLOUR( '', #425 );
#368 = FILL_AREA_STYLE_COLOUR( '', #426 );
#369 = FILL_AREA_STYLE_COLOUR( '', #427 );
#370 = COLOUR_RGB( '', 0.200000002980232, 0.200000002980232, 0.200000002980232 );
#371 = CARTESIAN_POINT( '', ( 8.50000000000000, -5.26782687642638, 7.80000000000000 ) );
#372 = CARTESIAN_POINT( '', ( 8.50000000000000, 5.26782687642638, 7.80000000000000 ) );
#373 = CARTESIAN_POINT( '', ( 8.50000000000000, -10.0000000000000, 7.80000000000000 ) );
#374 = VECTOR( '', #428, 1000.00000000000 );
#375 = AXIS2_PLACEMENT_3D( '', #429, #430, #431 );
#376 = COLOUR_RGB( '', 0.200000002980232, 0.200000002980232, 0.200000002980232 );
#377 = CARTESIAN_POINT( '', ( 6.00000000000000, 0.000000000000000, 0.000000000000000 ) );
#378 = AXIS2_PLACEMENT_3D( '', #432, #433, #434 );
#379 = CARTESIAN_POINT( '', ( -8.50000000000000, -5.26782687642636, 0.000000000000000 ) );
#380 = CARTESIAN_POINT( '', ( -8.50000000000000, 5.26782687642636, 0.000000000000000 ) );
#381 = CARTESIAN_POINT( '', ( -8.50000000000000, -10.0000000000000, 0.000000000000000 ) );
#382 = VECTOR( '', #435, 1000.00000000000 );
#383 = CARTESIAN_POINT( '', ( 8.50000000000000, 5.26782687642638, 0.000000000000000 ) );
#384 = AXIS2_PLACEMENT_3D( '', #436, #437, #438 );
#385 = CARTESIAN_POINT( '', ( 8.50000000000000, -5.26782687642638, 0.000000000000000 ) );
#386 = CARTESIAN_POINT( '', ( 8.50000000000000, -10.0000000000000, 0.000000000000000 ) );
#387 = VECTOR( '', #439, 1000.00000000000 );
#388 = AXIS2_PLACEMENT_3D( '', #440, #441, #442 );
#389 = COLOUR_RGB( '', 0.200000002980232, 0.200000002980232, 0.200000002980232 );
#390 = CARTESIAN_POINT( '', ( 6.78306715284465, 0.000000000000000, 15.7000000000000 ) );
#391 = AXIS2_PLACEMENT_3D( '', #443, #444, #445 );
#392 = CARTESIAN_POINT( '', ( -7.70000000000000, 0.000000000000000, 15.7000000000000 ) );
#393 = AXIS2_PLACEMENT_3D( '', #446, #447, #448 );
#394 = COLOUR_RGB( '', 0.200000002980232, 0.200000002980232, 0.200000002980232 );
#395 = CARTESIAN_POINT( '', ( -10.0000000000000, 0.000000000000000, 12.4000000000000 ) );
#396 = AXIS2_PLACEMENT_3D( '', #449, #450, #451 );
#397 = CARTESIAN_POINT( '', ( -8.50000000000000, 5.26782687642636, 7.80000000000000 ) );
#398 = CARTESIAN_POINT( '', ( -8.50000000000000, 5.26782687642636, 15.7000000000000 ) );
#399 = VECTOR( '', #452, 1000.00000000000 );
#400 = CARTESIAN_POINT( '', ( -8.50000000000000, -5.26782687642636, 7.80000000000000 ) );
#401 = AXIS2_PLACEMENT_3D( '', #453, #454, #455 );
#402 = CARTESIAN_POINT( '', ( -8.50000000000000, -5.26782687642636, 15.7000000000000 ) );
#403 = VECTOR( '', #456, 1000.00000000000 );
#404 = CARTESIAN_POINT( '', ( 8.50000000000000, -5.26782687642638, 15.7000000000000 ) );
#405 = VECTOR( '', #457, 1000.00000000000 );
#406 = CARTESIAN_POINT( '', ( 8.50000000000000, 5.26782687642638, 15.7000000000000 ) );
#407 = VECTOR( '', #458, 1000.00000000000 );
#408 = COLOUR_RGB( '', 0.200000002980232, 0.200000002980232, 0.200000002980232 );
#409 = CARTESIAN_POINT( '', ( -8.50000000000000, -10.0000000000000, 7.80000000000000 ) );
#410 = VECTOR( '', #459, 1000.00000000000 );
#411 = COLOUR_RGB( '', 0.200000002980232, 0.200000002980232, 0.200000002980232 );
#412 = COLOUR_RGB( '', 0.200000002980232, 0.200000002980232, 0.200000002980232 );
#413 = CARTESIAN_POINT( '', ( -8.10201703083385, 0.000000000000000, 14.2980000000000 ) );
#414 = AXIS2_PLACEMENT_3D( '', #460, #461, #462 );
#415 = COLOUR_RGB( '', 1.00000000000000, 1.00000000000000, 1.00000000000000 );
#416 = CARTESIAN_POINT( '', ( 5.09901951359279, 0.000000000000000, 18.0000000000000 ) );
#417 = AXIS2_PLACEMENT_3D( '', #463, #464, #465 );
#418 = COLOUR_RGB( '', 0.200000002980232, 0.200000002980232, 0.200000002980232 );
#419 = CARTESIAN_POINT( '', ( 6.00000000000000, 0.000000000000000, -10.0000000000000 ) );
#420 = AXIS2_PLACEMENT_3D( '', #466, #467, #468 );
#421 = COLOUR_RGB( '', 0.200000002980232, 0.200000002980232, 0.200000002980232 );
#422 = CARTESIAN_POINT( '', ( 4.00000000000000, 0.000000000000000, -12.0000000000000 ) );
#423 = AXIS2_PLACEMENT_3D( '', #469, #470, #471 );
#424 = COLOUR_RGB( '', 0.200000002980232, 0.200000002980232, 0.200000002980232 );
#425 = COLOUR_RGB( '', 0.200000002980232, 0.200000002980232, 0.200000002980232 );
#426 = COLOUR_RGB( '', 1.00000000000000, 1.00000000000000, 1.00000000000000 );
#427 = COLOUR_RGB( '', 0.200000002980232, 0.200000002980232, 0.200000002980232 );
#428 = DIRECTION( '', ( 0.000000000000000, 1.00000000000000, 0.000000000000000 ) );
#429 = CARTESIAN_POINT( '', ( 6.93889390390723E-015, 0.000000000000000, 7.80000000000000 ) );
#430 = DIRECTION( '', ( 0.000000000000000, 0.000000000000000, -1.00000000000000 ) );
#431 = DIRECTION( '', ( -1.00000000000000, 0.000000000000000, 0.000000000000000 ) );
#432 = CARTESIAN_POINT( '', ( 0.000000000000000, 0.000000000000000, 0.000000000000000 ) );
#433 = DIRECTION( '', ( 0.000000000000000, 0.000000000000000, 1.00000000000000 ) );
#434 = DIRECTION( '', ( 1.00000000000000, 0.000000000000000, 0.000000000000000 ) );
#435 = DIRECTION( '', ( 0.000000000000000, 1.00000000000000, 0.000000000000000 ) );
#436 = CARTESIAN_POINT( '', ( 6.93889390390723E-015, 0.000000000000000, 0.000000000000000 ) );
#437 = DIRECTION( '', ( 0.000000000000000, 0.000000000000000, 1.00000000000000 ) );
#438 = DIRECTION( '', ( 1.00000000000000, 0.000000000000000, 0.000000000000000 ) );
#439 = DIRECTION( '', ( 0.000000000000000, 1.00000000000000, 0.000000000000000 ) );
#440 = CARTESIAN_POINT( '', ( 6.93889390390723E-015, 0.000000000000000, 0.000000000000000 ) );
#441 = DIRECTION( '', ( 0.000000000000000, 0.000000000000000, 1.00000000000000 ) );
#442 = DIRECTION( '', ( 1.00000000000000, 0.000000000000000, 0.000000000000000 ) );
#443 = CARTESIAN_POINT( '', ( 5.08228421646152E-015, 0.000000000000000, 15.7000000000000 ) );
#444 = DIRECTION( '', ( 0.000000000000000, 0.000000000000000, 1.00000000000000 ) );
#445 = DIRECTION( '', ( 1.00000000000000, 0.000000000000000, 0.000000000000000 ) );
#446 = CARTESIAN_POINT( '', ( 0.000000000000000, 0.000000000000000, 15.7000000000000 ) );
#447 = DIRECTION( '', ( 0.000000000000000, 0.000000000000000, -1.00000000000000 ) );
#448 = DIRECTION( '', ( -1.00000000000000, 0.000000000000000, 0.000000000000000 ) );
#449 = CARTESIAN_POINT( '', ( 0.000000000000000, 0.000000000000000, 12.4000000000000 ) );
#450 = DIRECTION( '', ( 0.000000000000000, 0.000000000000000, -1.00000000000000 ) );
#451 = DIRECTION( '', ( -1.00000000000000, 0.000000000000000, 0.000000000000000 ) );
#452 = DIRECTION( '', ( 0.000000000000000, 0.000000000000000, -1.00000000000000 ) );
#453 = CARTESIAN_POINT( '', ( 6.93889390390723E-015, 0.000000000000000, 7.80000000000000 ) );
#454 = DIRECTION( '', ( 0.000000000000000, 0.000000000000000, -1.00000000000000 ) );
#455 = DIRECTION( '', ( -1.00000000000000, 0.000000000000000, 0.000000000000000 ) );
#456 = DIRECTION( '', ( 0.000000000000000, 0.000000000000000, -1.00000000000000 ) );
#457 = DIRECTION( '', ( 0.000000000000000, 0.000000000000000, -1.00000000000000 ) );
#458 = DIRECTION( '', ( 0.000000000000000, 0.000000000000000, -1.00000000000000 ) );
#459 = DIRECTION( '', ( 0.000000000000000, 1.00000000000000, 0.000000000000000 ) );
#460 = CARTESIAN_POINT( '', ( 0.000000000000000, 0.000000000000000, 14.2980000000000 ) );
#461 = DIRECTION( '', ( 0.000000000000000, 0.000000000000000, -1.00000000000000 ) );
#462 = DIRECTION( '', ( -1.00000000000000, 0.000000000000000, 0.000000000000000 ) );
#463 = CARTESIAN_POINT( '', ( 0.000000000000000, 0.000000000000000, 18.0000000000000 ) );
#464 = DIRECTION( '', ( 0.000000000000000, 0.000000000000000, 1.00000000000000 ) );
#465 = DIRECTION( '', ( 1.00000000000000, 0.000000000000000, 0.000000000000000 ) );
#466 = CARTESIAN_POINT( '', ( 0.000000000000000, 0.000000000000000, -10.0000000000000 ) );
#467 = DIRECTION( '', ( 0.000000000000000, 0.000000000000000, 1.00000000000000 ) );
#468 = DIRECTION( '', ( 1.00000000000000, 0.000000000000000, 0.000000000000000 ) );
#469 = CARTESIAN_POINT( '', ( 0.000000000000000, 0.000000000000000, -12.0000000000000 ) );
#470 = DIRECTION( '', ( 0.000000000000000, 0.000000000000000, 1.00000000000000 ) );
#471 = DIRECTION( '', ( 1.00000000000000, 0.000000000000000, 0.000000000000000 ) );
ENDSEC;
END-ISO-10303-21;
