ISO-10303-21;
HEADER;
FILE_DESCRIPTION( ( 'Unknown' ), '1' );
FILE_NAME( 'S:/LEAVE 2D&3D CAD/LEAVE 3D-STEP/Metric/PT-3D/PT50-3D/PT50-2035.stp', 'Unknown', ( 'Unknown' ), ( 'Unknown' ), 'PSStep 16.0.42', 'Unknown', '  ' );
FILE_SCHEMA( ( 'AUTOMOTIVE_DESIGN { 1 0 10303 214 1 1 1 1 }' ) );
ENDSEC;
DATA;
#1 = MECHANICAL_DESIGN_GEOMETRIC_PRESENTATION_REPRESENTATION( ' ', ( #10, #11, #12, #13, #14, #15, #16, #17, #18, #19, #20, #21, #22, #23 ), #6 );
#2 = PRODUCT_DEFINITION_CONTEXT( '', #24, 'design' );
#3 = APPLICATION_PROTOCOL_DEFINITION( 'international standard', 'automotive_design', 2001, #24 );
#4 = PRODUCT_CATEGORY_RELATIONSHIP( 'NONE', 'NONE', #25, #26 );
#5 = SHAPE_DEFINITION_REPRESENTATION( #27, #28 );
#6 =  ( GEOMETRIC_REPRESENTATION_CONTEXT( 3 )GLOBAL_UNCERTAINTY_ASSIGNED_CONTEXT( ( #31 ) )GLOBAL_UNIT_ASSIGNED_CONTEXT( ( #33, #34, #35 ) )REPRESENTATION_CONTEXT( 'NONE', 'WORKSPACE' ) );
#10 = STYLED_ITEM( '', ( #37 ), #38 );
#11 = STYLED_ITEM( '', ( #39 ), #40 );
#12 = STYLED_ITEM( '', ( #41 ), #42 );
#13 = STYLED_ITEM( '', ( #43 ), #44 );
#14 = STYLED_ITEM( '', ( #45 ), #46 );
#15 = STYLED_ITEM( '', ( #47 ), #48 );
#16 = STYLED_ITEM( '', ( #49 ), #50 );
#17 = STYLED_ITEM( '', ( #51 ), #52 );
#18 = STYLED_ITEM( '', ( #53 ), #54 );
#19 = STYLED_ITEM( '', ( #55 ), #56 );
#20 = STYLED_ITEM( '', ( #57 ), #58 );
#21 = STYLED_ITEM( '', ( #59 ), #60 );
#22 = STYLED_ITEM( '', ( #61 ), #62 );
#23 = STYLED_ITEM( '', ( #63 ), #64 );
#24 = APPLICATION_CONTEXT( 'core data for automotive mechanical design processes' );
#25 = PRODUCT_CATEGORY( 'part', 'NONE' );
#26 = PRODUCT_RELATED_PRODUCT_CATEGORY( 'detail', ' ', ( #65 ) );
#27 = PRODUCT_DEFINITION_SHAPE( 'NONE', 'NONE', #66 );
#28 = ADVANCED_BREP_SHAPE_REPRESENTATION( '1', ( #67, #68 ), #6 );
#31 = UNCERTAINTY_MEASURE_WITH_UNIT( LENGTH_MEASURE( 0.00100000000000000 ), #33, '', '' );
#33 =  ( CONVERSION_BASED_UNIT( 'MILLIMETRE', #71 )LENGTH_UNIT(  )NAMED_UNIT( #74 ) );
#34 =  ( NAMED_UNIT( #76 )PLANE_ANGLE_UNIT(  )SI_UNIT( $, .RADIAN. ) );
#35 =  ( NAMED_UNIT( #76 )SI_UNIT( $, .STERADIAN. )SOLID_ANGLE_UNIT(  ) );
#37 = PRESENTATION_STYLE_ASSIGNMENT( ( #82 ) );
#38 = ADVANCED_FACE( '', ( #83, #84 ), #85, .T. );
#39 = PRESENTATION_STYLE_ASSIGNMENT( ( #86 ) );
#40 = ADVANCED_FACE( '', ( #87, #88 ), #89, .T. );
#41 = PRESENTATION_STYLE_ASSIGNMENT( ( #90 ) );
#42 = ADVANCED_FACE( '', ( #91 ), #92, .T. );
#43 = PRESENTATION_STYLE_ASSIGNMENT( ( #93 ) );
#44 = ADVANCED_FACE( '', ( #94, #95 ), #96, .F. );
#45 = PRESENTATION_STYLE_ASSIGNMENT( ( #97 ) );
#46 = ADVANCED_FACE( '', ( #98, #99 ), #100, .T. );
#47 = PRESENTATION_STYLE_ASSIGNMENT( ( #101 ) );
#48 = ADVANCED_FACE( '', ( #102 ), #103, .T. );
#49 = PRESENTATION_STYLE_ASSIGNMENT( ( #104 ) );
#50 = ADVANCED_FACE( '', ( #105 ), #106, .F. );
#51 = PRESENTATION_STYLE_ASSIGNMENT( ( #107 ) );
#52 = ADVANCED_FACE( '', ( #108, #109 ), #110, .T. );
#53 = PRESENTATION_STYLE_ASSIGNMENT( ( #111 ) );
#54 = ADVANCED_FACE( '', ( #112, #113 ), #114, .T. );
#55 = PRESENTATION_STYLE_ASSIGNMENT( ( #115 ) );
#56 = ADVANCED_FACE( '', ( #116, #117 ), #118, .T. );
#57 = PRESENTATION_STYLE_ASSIGNMENT( ( #119 ) );
#58 = ADVANCED_FACE( '', ( #120 ), #121, .T. );
#59 = PRESENTATION_STYLE_ASSIGNMENT( ( #122 ) );
#60 = ADVANCED_FACE( '', ( #123 ), #124, .T. );
#61 = PRESENTATION_STYLE_ASSIGNMENT( ( #125 ) );
#62 = ADVANCED_FACE( '', ( #126, #127 ), #128, .T. );
#63 = PRESENTATION_STYLE_ASSIGNMENT( ( #129 ) );
#64 = ADVANCED_FACE( '', ( #130 ), #131, .T. );
#65 = PRODUCT( '1', '1', 'PART-1-DESC', ( #132 ) );
#66 = PRODUCT_DEFINITION( 'NONE', 'NONE', #133, #2 );
#67 = MANIFOLD_SOLID_BREP( '1', #134 );
#68 = AXIS2_PLACEMENT_3D( '', #135, #136, #137 );
#71 = LENGTH_MEASURE_WITH_UNIT( LENGTH_MEASURE( 1.00000000000000 ), #138 );
#74 = DIMENSIONAL_EXPONENTS( 1.00000000000000, 0.000000000000000, 0.000000000000000, 0.000000000000000, 0.000000000000000, 0.000000000000000, 0.000000000000000 );
#76 = DIMENSIONAL_EXPONENTS( 0.000000000000000, 0.000000000000000, 0.000000000000000, 0.000000000000000, 0.000000000000000, 0.000000000000000, 0.000000000000000 );
#82 = SURFACE_STYLE_USAGE( .BOTH., #139 );
#83 = FACE_BOUND( '', #140, .T. );
#84 = FACE_OUTER_BOUND( '', #141, .T. );
#85 = CONICAL_SURFACE( '', #142, 10.0000000000000, 0.785398163397449 );
#86 = SURFACE_STYLE_USAGE( .BOTH., #143 );
#87 = FACE_OUTER_BOUND( '', #144, .T. );
#88 = FACE_OUTER_BOUND( '', #145, .T. );
#89 = CYLINDRICAL_SURFACE( '', #146, 10.0000000000000 );
#90 = SURFACE_STYLE_USAGE( .BOTH., #147 );
#91 = FACE_OUTER_BOUND( '', #148, .T. );
#92 = PLANE( '', #149 );
#93 = SURFACE_STYLE_USAGE( .BOTH., #150 );
#94 = FACE_BOUND( '', #151, .T. );
#95 = FACE_OUTER_BOUND( '', #152, .T. );
#96 = PLANE( '', #153 );
#97 = SURFACE_STYLE_USAGE( .BOTH., #154 );
#98 = FACE_OUTER_BOUND( '', #155, .T. );
#99 = FACE_OUTER_BOUND( '', #156, .T. );
#100 = CYLINDRICAL_SURFACE( '', #157, 25.0000000000000 );
#101 = SURFACE_STYLE_USAGE( .BOTH., #158 );
#102 = FACE_OUTER_BOUND( '', #159, .T. );
#103 = PLANE( '', #160 );
#104 = SURFACE_STYLE_USAGE( .BOTH., #161 );
#105 = FACE_OUTER_BOUND( '', #162, .T. );
#106 = PLANE( '', #163 );
#107 = SURFACE_STYLE_USAGE( .BOTH., #164 );
#108 = FACE_BOUND( '', #165, .T. );
#109 = FACE_OUTER_BOUND( '', #166, .T. );
#110 = PLANE( '', #167 );
#111 = SURFACE_STYLE_USAGE( .BOTH., #168 );
#112 = FACE_BOUND( '', #169, .T. );
#113 = FACE_OUTER_BOUND( '', #170, .T. );
#114 = CONICAL_SURFACE( '', #171, 25.0000000000000, 0.693540292453473 );
#115 = SURFACE_STYLE_USAGE( .BOTH., #172 );
#116 = FACE_BOUND( '', #173, .T. );
#117 = FACE_OUTER_BOUND( '', #174, .T. );
#118 = CONICAL_SURFACE( '', #175, 21.4253866082105, 0.261799387799148 );
#119 = SURFACE_STYLE_USAGE( .BOTH., #176 );
#120 = FACE_OUTER_BOUND( '', #177, .T. );
#121 = PLANE( '', #178 );
#122 = SURFACE_STYLE_USAGE( .BOTH., #179 );
#123 = FACE_OUTER_BOUND( '', #180, .T. );
#124 = PLANE( '', #181 );
#125 = SURFACE_STYLE_USAGE( .BOTH., #182 );
#126 = FACE_OUTER_BOUND( '', #183, .T. );
#127 = FACE_OUTER_BOUND( '', #184, .T. );
#128 = SPHERICAL_SURFACE( '', #185, 20.0000000000000 );
#129 = SURFACE_STYLE_USAGE( .BOTH., #186 );
#130 = FACE_OUTER_BOUND( '', #187, .T. );
#131 = PLANE( '', #188 );
#132 = PRODUCT_CONTEXT( '', #24, 'mechanical' );
#133 = PRODUCT_DEFINITION_FORMATION_WITH_SPECIFIED_SOURCE( ' ', 'NONE', #65, .NOT_KNOWN. );
#134 = CLOSED_SHELL( '', ( #62, #64, #42, #46, #44, #52, #54, #56, #40, #50, #60, #48, #58, #38 ) );
#135 = CARTESIAN_POINT( '', ( 0.000000000000000, 0.000000000000000, 0.000000000000000 ) );
#136 = DIRECTION( '', ( 0.000000000000000, 0.000000000000000, 1.00000000000000 ) );
#137 = DIRECTION( '', ( 1.00000000000000, 0.000000000000000, 0.000000000000000 ) );
#138 =  ( LENGTH_UNIT(  )NAMED_UNIT( #74 )SI_UNIT( .MILLI., .METRE. ) );
#139 = SURFACE_SIDE_STYLE( '', ( #190 ) );
#140 = EDGE_LOOP( '', ( #191 ) );
#141 = EDGE_LOOP( '', ( #192 ) );
#142 = AXIS2_PLACEMENT_3D( '', #193, #194, #195 );
#143 = SURFACE_SIDE_STYLE( '', ( #196 ) );
#144 = EDGE_LOOP( '', ( #197 ) );
#145 = EDGE_LOOP( '', ( #198 ) );
#146 = AXIS2_PLACEMENT_3D( '', #199, #200, #201 );
#147 = SURFACE_SIDE_STYLE( '', ( #202 ) );
#148 = EDGE_LOOP( '', ( #203, #204, #205, #206 ) );
#149 = AXIS2_PLACEMENT_3D( '', #207, #208, #209 );
#150 = SURFACE_SIDE_STYLE( '', ( #210 ) );
#151 = EDGE_LOOP( '', ( #211 ) );
#152 = EDGE_LOOP( '', ( #212, #213, #214, #215 ) );
#153 = AXIS2_PLACEMENT_3D( '', #216, #217, #218 );
#154 = SURFACE_SIDE_STYLE( '', ( #219 ) );
#155 = EDGE_LOOP( '', ( #220 ) );
#156 = EDGE_LOOP( '', ( #221, #222, #223, #224, #225, #226, #227, #228 ) );
#157 = AXIS2_PLACEMENT_3D( '', #229, #230, #231 );
#158 = SURFACE_SIDE_STYLE( '', ( #232 ) );
#159 = EDGE_LOOP( '', ( #233, #234 ) );
#160 = AXIS2_PLACEMENT_3D( '', #235, #236, #237 );
#161 = SURFACE_SIDE_STYLE( '', ( #238 ) );
#162 = EDGE_LOOP( '', ( #239 ) );
#163 = AXIS2_PLACEMENT_3D( '', #240, #241, #242 );
#164 = SURFACE_SIDE_STYLE( '', ( #243 ) );
#165 = EDGE_LOOP( '', ( #244 ) );
#166 = EDGE_LOOP( '', ( #245 ) );
#167 = AXIS2_PLACEMENT_3D( '', #246, #247, #248 );
#168 = SURFACE_SIDE_STYLE( '', ( #249 ) );
#169 = EDGE_LOOP( '', ( #250 ) );
#170 = EDGE_LOOP( '', ( #251 ) );
#171 = AXIS2_PLACEMENT_3D( '', #252, #253, #254 );
#172 = SURFACE_SIDE_STYLE( '', ( #255 ) );
#173 = EDGE_LOOP( '', ( #256 ) );
#174 = EDGE_LOOP( '', ( #257 ) );
#175 = AXIS2_PLACEMENT_3D( '', #258, #259, #260 );
#176 = SURFACE_SIDE_STYLE( '', ( #261 ) );
#177 = EDGE_LOOP( '', ( #262, #263 ) );
#178 = AXIS2_PLACEMENT_3D( '', #264, #265, #266 );
#179 = SURFACE_SIDE_STYLE( '', ( #267 ) );
#180 = EDGE_LOOP( '', ( #268, #269, #270, #271 ) );
#181 = AXIS2_PLACEMENT_3D( '', #272, #273, #274 );
#182 = SURFACE_SIDE_STYLE( '', ( #275 ) );
#183 = EDGE_LOOP( '', ( #276 ) );
#184 = EDGE_LOOP( '', ( #277 ) );
#185 = AXIS2_PLACEMENT_3D( '', #278, #279, #280 );
#186 = SURFACE_SIDE_STYLE( '', ( #281 ) );
#187 = EDGE_LOOP( '', ( #282 ) );
#188 = AXIS2_PLACEMENT_3D( '', #283, #284, #285 );
#190 = SURFACE_STYLE_FILL_AREA( #286 );
#191 = ORIENTED_EDGE( '', *, *, #287, .F. );
#192 = ORIENTED_EDGE( '', *, *, #288, .F. );
#193 = CARTESIAN_POINT( '', ( 0.000000000000000, 0.000000000000000, -17.5000000000000 ) );
#194 = DIRECTION( '', ( -0.000000000000000, -0.000000000000000, 1.00000000000000 ) );
#195 = DIRECTION( '', ( 1.00000000000000, 0.000000000000000, 0.000000000000000 ) );
#196 = SURFACE_STYLE_FILL_AREA( #289 );
#197 = ORIENTED_EDGE( '', *, *, #288, .T. );
#198 = ORIENTED_EDGE( '', *, *, #290, .F. );
#199 = CARTESIAN_POINT( '', ( 0.000000000000000, 0.000000000000000, -20.0000000000000 ) );
#200 = DIRECTION( '', ( -0.000000000000000, -0.000000000000000, -1.00000000000000 ) );
#201 = DIRECTION( '', ( 1.00000000000000, 0.000000000000000, 0.000000000000000 ) );
#202 = SURFACE_STYLE_FILL_AREA( #291 );
#203 = ORIENTED_EDGE( '', *, *, #292, .T. );
#204 = ORIENTED_EDGE( '', *, *, #293, .F. );
#205 = ORIENTED_EDGE( '', *, *, #294, .T. );
#206 = ORIENTED_EDGE( '', *, *, #295, .T. );
#207 = CARTESIAN_POINT( '', ( -20.5000000000000, -25.0000000000000, 0.000000000000000 ) );
#208 = DIRECTION( '', ( -1.00000000000000, 0.000000000000000, 0.000000000000000 ) );
#209 = DIRECTION( '', ( 0.000000000000000, 0.000000000000000, 1.00000000000000 ) );
#210 = SURFACE_STYLE_FILL_AREA( #296 );
#211 = ORIENTED_EDGE( '', *, *, #290, .T. );
#212 = ORIENTED_EDGE( '', *, *, #293, .T. );
#213 = ORIENTED_EDGE( '', *, *, #297, .F. );
#214 = ORIENTED_EDGE( '', *, *, #298, .F. );
#215 = ORIENTED_EDGE( '', *, *, #299, .F. );
#216 = CARTESIAN_POINT( '', ( 3.30643715532042E-015, 0.000000000000000, 0.000000000000000 ) );
#217 = DIRECTION( '', ( 0.000000000000000, 0.000000000000000, 1.00000000000000 ) );
#218 = DIRECTION( '', ( 1.00000000000000, 0.000000000000000, 0.000000000000000 ) );
#219 = SURFACE_STYLE_FILL_AREA( #300 );
#220 = ORIENTED_EDGE( '', *, *, #301, .T. );
#221 = ORIENTED_EDGE( '', *, *, #292, .F. );
#222 = ORIENTED_EDGE( '', *, *, #302, .F. );
#223 = ORIENTED_EDGE( '', *, *, #294, .F. );
#224 = ORIENTED_EDGE( '', *, *, #299, .T. );
#225 = ORIENTED_EDGE( '', *, *, #303, .F. );
#226 = ORIENTED_EDGE( '', *, *, #304, .F. );
#227 = ORIENTED_EDGE( '', *, *, #305, .F. );
#228 = ORIENTED_EDGE( '', *, *, #297, .T. );
#229 = CARTESIAN_POINT( '', ( 3.30643715532042E-015, 0.000000000000000, 30.2000000000000 ) );
#230 = DIRECTION( '', ( -0.000000000000000, -0.000000000000000, 1.00000000000000 ) );
#231 = DIRECTION( '', ( -1.00000000000000, 0.000000000000000, 0.000000000000000 ) );
#232 = SURFACE_STYLE_FILL_AREA( #306 );
#233 = ORIENTED_EDGE( '', *, *, #307, .T. );
#234 = ORIENTED_EDGE( '', *, *, #304, .T. );
#235 = CARTESIAN_POINT( '', ( 25.0000000000000, -25.0000000000000, 15.9000000000000 ) );
#236 = DIRECTION( '', ( 0.000000000000000, 0.000000000000000, -1.00000000000000 ) );
#237 = DIRECTION( '', ( -1.00000000000000, 0.000000000000000, 0.000000000000000 ) );
#238 = SURFACE_STYLE_FILL_AREA( #308 );
#239 = ORIENTED_EDGE( '', *, *, #287, .T. );
#240 = CARTESIAN_POINT( '', ( 0.000000000000000, 0.000000000000000, -20.0000000000000 ) );
#241 = DIRECTION( '', ( 0.000000000000000, 0.000000000000000, 1.00000000000000 ) );
#242 = DIRECTION( '', ( 1.00000000000000, 0.000000000000000, 0.000000000000000 ) );
#243 = SURFACE_STYLE_FILL_AREA( #309 );
#244 = ORIENTED_EDGE( '', *, *, #310, .F. );
#245 = ORIENTED_EDGE( '', *, *, #311, .F. );
#246 = CARTESIAN_POINT( '', ( 3.30643715532042E-015, 0.000000000000000, 30.2000000000000 ) );
#247 = DIRECTION( '', ( 0.000000000000000, 0.000000000000000, 1.00000000000000 ) );
#248 = DIRECTION( '', ( 1.00000000000000, 0.000000000000000, 0.000000000000000 ) );
#249 = SURFACE_STYLE_FILL_AREA( #312 );
#250 = ORIENTED_EDGE( '', *, *, #313, .T. );
#251 = ORIENTED_EDGE( '', *, *, #301, .F. );
#252 = CARTESIAN_POINT( '', ( 0.000000000000000, 0.000000000000000, 21.7000000000000 ) );
#253 = DIRECTION( '', ( -0.000000000000000, 0.000000000000000, -1.00000000000000 ) );
#254 = DIRECTION( '', ( -1.00000000000000, 0.000000000000000, 0.000000000000000 ) );
#255 = SURFACE_STYLE_FILL_AREA( #314 );
#256 = ORIENTED_EDGE( '', *, *, #311, .T. );
#257 = ORIENTED_EDGE( '', *, *, #313, .F. );
#258 = CARTESIAN_POINT( '', ( 0.000000000000000, 0.000000000000000, 26.0000000000000 ) );
#259 = DIRECTION( '', ( -0.000000000000000, 0.000000000000000, -1.00000000000000 ) );
#260 = DIRECTION( '', ( -1.00000000000000, 0.000000000000000, 0.000000000000000 ) );
#261 = SURFACE_STYLE_FILL_AREA( #315 );
#262 = ORIENTED_EDGE( '', *, *, #302, .T. );
#263 = ORIENTED_EDGE( '', *, *, #295, .F. );
#264 = CARTESIAN_POINT( '', ( -20.5000000000000, -25.0000000000000, 15.9000000000000 ) );
#265 = DIRECTION( '', ( 0.000000000000000, 0.000000000000000, -1.00000000000000 ) );
#266 = DIRECTION( '', ( -1.00000000000000, 0.000000000000000, 0.000000000000000 ) );
#267 = SURFACE_STYLE_FILL_AREA( #316 );
#268 = ORIENTED_EDGE( '', *, *, #303, .T. );
#269 = ORIENTED_EDGE( '', *, *, #298, .T. );
#270 = ORIENTED_EDGE( '', *, *, #305, .T. );
#271 = ORIENTED_EDGE( '', *, *, #307, .F. );
#272 = CARTESIAN_POINT( '', ( 20.5000000000000, -25.0000000000000, 15.9000000000000 ) );
#273 = DIRECTION( '', ( 1.00000000000000, 0.000000000000000, 2.18204210814693E-016 ) );
#274 = DIRECTION( '', ( 2.18204210814693E-016, 0.000000000000000, -1.00000000000000 ) );
#275 = SURFACE_STYLE_FILL_AREA( #317 );
#276 = ORIENTED_EDGE( '', *, *, #310, .T. );
#277 = ORIENTED_EDGE( '', *, *, #318, .F. );
#278 = CARTESIAN_POINT( '', ( 0.000000000000000, 0.000000000000000, 24.8788587600014 ) );
#279 = DIRECTION( '', ( -7.95424110045396E-033, -1.29906905604830E-016, 1.00000000000000 ) );
#280 = DIRECTION( '', ( 6.12303176911189E-017, 1.00000000000000, 1.29906905604830E-016 ) );
#281 = SURFACE_STYLE_FILL_AREA( #319 );
#282 = ORIENTED_EDGE( '', *, *, #318, .T. );
#283 = CARTESIAN_POINT( '', ( -9.06484931673527E-034, -1.48045113247062E-017, 35.0000000000000 ) );
#284 = DIRECTION( '', ( -7.95424110045396E-033, -1.29906905604830E-016, 1.00000000000000 ) );
#285 = DIRECTION( '', ( 0.000000000000000, -1.00000000000000, -1.29906905604830E-016 ) );
#286 = FILL_AREA_STYLE( '', ( #320 ) );
#287 = EDGE_CURVE( '', #321, #321, #322, .F. );
#288 = EDGE_CURVE( '', #323, #323, #324, .T. );
#289 = FILL_AREA_STYLE( '', ( #325 ) );
#290 = EDGE_CURVE( '', #326, #326, #327, .T. );
#291 = FILL_AREA_STYLE( '', ( #328 ) );
#292 = EDGE_CURVE( '', #329, #330, #331, .T. );
#293 = EDGE_CURVE( '', #332, #330, #333, .T. );
#294 = EDGE_CURVE( '', #332, #334, #335, .F. );
#295 = EDGE_CURVE( '', #334, #329, #336, .T. );
#296 = FILL_AREA_STYLE( '', ( #337 ) );
#297 = EDGE_CURVE( '', #338, #330, #339, .T. );
#298 = EDGE_CURVE( '', #340, #338, #341, .T. );
#299 = EDGE_CURVE( '', #332, #340, #342, .T. );
#300 = FILL_AREA_STYLE( '', ( #343 ) );
#301 = EDGE_CURVE( '', #344, #344, #345, .T. );
#302 = EDGE_CURVE( '', #334, #329, #346, .T. );
#303 = EDGE_CURVE( '', #347, #340, #348, .T. );
#304 = EDGE_CURVE( '', #349, #347, #350, .T. );
#305 = EDGE_CURVE( '', #338, #349, #351, .F. );
#306 = FILL_AREA_STYLE( '', ( #352 ) );
#307 = EDGE_CURVE( '', #347, #349, #353, .T. );
#308 = FILL_AREA_STYLE( '', ( #354 ) );
#309 = FILL_AREA_STYLE( '', ( #355 ) );
#310 = EDGE_CURVE( '', #356, #356, #357, .T. );
#311 = EDGE_CURVE( '', #358, #358, #359, .T. );
#312 = FILL_AREA_STYLE( '', ( #360 ) );
#313 = EDGE_CURVE( '', #361, #361, #362, .T. );
#314 = FILL_AREA_STYLE( '', ( #363 ) );
#315 = FILL_AREA_STYLE( '', ( #364 ) );
#316 = FILL_AREA_STYLE( '', ( #365 ) );
#317 = FILL_AREA_STYLE( '', ( #366 ) );
#318 = EDGE_CURVE( '', #367, #367, #368, .T. );
#319 = FILL_AREA_STYLE( '', ( #369 ) );
#320 = FILL_AREA_STYLE_COLOUR( '', #370 );
#321 = VERTEX_POINT( '', #371 );
#322 = CIRCLE( '', #372, 7.50000000000000 );
#323 = VERTEX_POINT( '', #373 );
#324 = CIRCLE( '', #374, 10.0000000000000 );
#325 = FILL_AREA_STYLE_COLOUR( '', #375 );
#326 = VERTEX_POINT( '', #376 );
#327 = CIRCLE( '', #377, 10.0000000000000 );
#328 = FILL_AREA_STYLE_COLOUR( '', #378 );
#329 = VERTEX_POINT( '', #379 );
#330 = VERTEX_POINT( '', #380 );
#331 = LINE( '', #381, #382 );
#332 = VERTEX_POINT( '', #383 );
#333 = LINE( '', #384, #385 );
#334 = VERTEX_POINT( '', #386 );
#335 = LINE( '', #387, #388 );
#336 = LINE( '', #389, #390 );
#337 = FILL_AREA_STYLE_COLOUR( '', #391 );
#338 = VERTEX_POINT( '', #392 );
#339 = CIRCLE( '', #393, 25.0000000000000 );
#340 = VERTEX_POINT( '', #394 );
#341 = LINE( '', #395, #396 );
#342 = CIRCLE( '', #397, 25.0000000000000 );
#343 = FILL_AREA_STYLE_COLOUR( '', #398 );
#344 = VERTEX_POINT( '', #399 );
#345 = CIRCLE( '', #400, 25.0000000000000 );
#346 = CIRCLE( '', #401, 25.0000000000000 );
#347 = VERTEX_POINT( '', #402 );
#348 = LINE( '', #403, #404 );
#349 = VERTEX_POINT( '', #405 );
#350 = CIRCLE( '', #406, 25.0000000000000 );
#351 = LINE( '', #407, #408 );
#352 = FILL_AREA_STYLE_COLOUR( '', #409 );
#353 = LINE( '', #410, #411 );
#354 = FILL_AREA_STYLE_COLOUR( '', #412 );
#355 = FILL_AREA_STYLE_COLOUR( '', #413 );
#356 = VERTEX_POINT( '', #414 );
#357 = CIRCLE( '', #415, 19.2791456217330 );
#358 = VERTEX_POINT( '', #416 );
#359 = CIRCLE( '', #417, 20.3000000000000 );
#360 = FILL_AREA_STYLE_COLOUR( '', #418 );
#361 = VERTEX_POINT( '', #419 );
#362 = CIRCLE( '', #420, 21.4253866082105 );
#363 = FILL_AREA_STYLE_COLOUR( '', #421 );
#364 = FILL_AREA_STYLE_COLOUR( '', #422 );
#365 = FILL_AREA_STYLE_COLOUR( '', #423 );
#366 = FILL_AREA_STYLE_COLOUR( '', #424 );
#367 = VERTEX_POINT( '', #425 );
#368 = CIRCLE( '', #426, 17.2500000000000 );
#369 = FILL_AREA_STYLE_COLOUR( '', #427 );
#370 = COLOUR_RGB( '', 0.200000002980232, 0.200000002980232, 0.200000002980232 );
#371 = CARTESIAN_POINT( '', ( 7.50000000000000, 0.000000000000000, -20.0000000000000 ) );
#372 = AXIS2_PLACEMENT_3D( '', #428, #429, #430 );
#373 = CARTESIAN_POINT( '', ( 10.0000000000000, 0.000000000000000, -17.5000000000000 ) );
#374 = AXIS2_PLACEMENT_3D( '', #431, #432, #433 );
#375 = COLOUR_RGB( '', 0.200000002980232, 0.200000002980232, 0.200000002980232 );
#376 = CARTESIAN_POINT( '', ( 10.0000000000000, 0.000000000000000, 0.000000000000000 ) );
#377 = AXIS2_PLACEMENT_3D( '', #434, #435, #436 );
#378 = COLOUR_RGB( '', 0.200000002980232, 0.200000002980232, 0.200000002980232 );
#379 = CARTESIAN_POINT( '', ( -20.5000000000000, 14.3090880212542, 15.9000000000000 ) );
#380 = CARTESIAN_POINT( '', ( -20.5000000000000, 14.3090880212542, 0.000000000000000 ) );
#381 = CARTESIAN_POINT( '', ( -20.5000000000000, 14.3090880212542, 30.2000000000000 ) );
#382 = VECTOR( '', #437, 1000.00000000000 );
#383 = CARTESIAN_POINT( '', ( -20.5000000000000, -14.3090880212542, 0.000000000000000 ) );
#384 = CARTESIAN_POINT( '', ( -20.5000000000000, -25.0000000000000, 0.000000000000000 ) );
#385 = VECTOR( '', #438, 1000.00000000000 );
#386 = CARTESIAN_POINT( '', ( -20.5000000000000, -14.3090880212542, 15.9000000000000 ) );
#387 = CARTESIAN_POINT( '', ( -20.5000000000000, -14.3090880212542, 30.2000000000000 ) );
#388 = VECTOR( '', #439, 1000.00000000000 );
#389 = CARTESIAN_POINT( '', ( -20.5000000000000, -25.0000000000000, 15.9000000000000 ) );
#390 = VECTOR( '', #440, 1000.00000000000 );
#391 = COLOUR_RGB( '', 0.200000002980232, 0.200000002980232, 0.200000002980232 );
#392 = CARTESIAN_POINT( '', ( 20.5000000000000, 14.3090880212542, 0.000000000000000 ) );
#393 = AXIS2_PLACEMENT_3D( '', #441, #442, #443 );
#394 = CARTESIAN_POINT( '', ( 20.5000000000000, -14.3090880212542, 0.000000000000000 ) );
#395 = CARTESIAN_POINT( '', ( 20.5000000000000, -25.0000000000000, 0.000000000000000 ) );
#396 = VECTOR( '', #444, 1000.00000000000 );
#397 = AXIS2_PLACEMENT_3D( '', #445, #446, #447 );
#398 = COLOUR_RGB( '', 0.200000002980232, 0.200000002980232, 0.200000002980232 );
#399 = CARTESIAN_POINT( '', ( -25.0000000000000, 0.000000000000000, 21.7000000000000 ) );
#400 = AXIS2_PLACEMENT_3D( '', #448, #449, #450 );
#401 = AXIS2_PLACEMENT_3D( '', #451, #452, #453 );
#402 = CARTESIAN_POINT( '', ( 20.5000000000000, -14.3090880212542, 15.9000000000000 ) );
#403 = CARTESIAN_POINT( '', ( 20.5000000000000, -14.3090880212542, 30.2000000000000 ) );
#404 = VECTOR( '', #454, 1000.00000000000 );
#405 = CARTESIAN_POINT( '', ( 20.5000000000000, 14.3090880212542, 15.9000000000000 ) );
#406 = AXIS2_PLACEMENT_3D( '', #455, #456, #457 );
#407 = CARTESIAN_POINT( '', ( 20.5000000000000, 14.3090880212542, 30.2000000000000 ) );
#408 = VECTOR( '', #458, 1000.00000000000 );
#409 = COLOUR_RGB( '', 0.200000002980232, 0.200000002980232, 0.200000002980232 );
#410 = CARTESIAN_POINT( '', ( 20.5000000000000, -25.0000000000000, 15.9000000000000 ) );
#411 = VECTOR( '', #459, 1000.00000000000 );
#412 = COLOUR_RGB( '', 0.200000002980232, 0.200000002980232, 0.200000002980232 );
#413 = COLOUR_RGB( '', 0.200000002980232, 0.200000002980232, 0.200000002980232 );
#414 = CARTESIAN_POINT( '', ( 19.2791456217330, 0.000000000000000, 30.2000000000000 ) );
#415 = AXIS2_PLACEMENT_3D( '', #460, #461, #462 );
#416 = CARTESIAN_POINT( '', ( -20.3000000000000, 0.000000000000000, 30.2000000000000 ) );
#417 = AXIS2_PLACEMENT_3D( '', #463, #464, #465 );
#418 = COLOUR_RGB( '', 0.200000002980232, 0.200000002980232, 0.200000002980232 );
#419 = CARTESIAN_POINT( '', ( -21.4253866082105, 0.000000000000000, 26.0000000000000 ) );
#420 = AXIS2_PLACEMENT_3D( '', #466, #467, #468 );
#421 = COLOUR_RGB( '', 0.200000002980232, 0.200000002980232, 0.200000002980232 );
#422 = COLOUR_RGB( '', 0.200000002980232, 0.200000002980232, 0.200000002980232 );
#423 = COLOUR_RGB( '', 0.200000002980232, 0.200000002980232, 0.200000002980232 );
#424 = COLOUR_RGB( '', 1.00000000000000, 1.00000000000000, 1.00000000000000 );
#425 = CARTESIAN_POINT( '', ( -9.06484931673518E-034, -17.2500000000000, 35.0000000000000 ) );
#426 = AXIS2_PLACEMENT_3D( '', #469, #470, #471 );
#427 = COLOUR_RGB( '', 1.00000000000000, 1.00000000000000, 1.00000000000000 );
#428 = CARTESIAN_POINT( '', ( 0.000000000000000, 0.000000000000000, -20.0000000000000 ) );
#429 = DIRECTION( '', ( 0.000000000000000, 0.000000000000000, 1.00000000000000 ) );
#430 = DIRECTION( '', ( 1.00000000000000, 0.000000000000000, 0.000000000000000 ) );
#431 = CARTESIAN_POINT( '', ( 0.000000000000000, 0.000000000000000, -17.5000000000000 ) );
#432 = DIRECTION( '', ( 0.000000000000000, 0.000000000000000, 1.00000000000000 ) );
#433 = DIRECTION( '', ( 1.00000000000000, 0.000000000000000, 0.000000000000000 ) );
#434 = CARTESIAN_POINT( '', ( 0.000000000000000, 0.000000000000000, 0.000000000000000 ) );
#435 = DIRECTION( '', ( 0.000000000000000, 0.000000000000000, 1.00000000000000 ) );
#436 = DIRECTION( '', ( 1.00000000000000, 0.000000000000000, 0.000000000000000 ) );
#437 = DIRECTION( '', ( 0.000000000000000, 0.000000000000000, -1.00000000000000 ) );
#438 = DIRECTION( '', ( 0.000000000000000, 1.00000000000000, 0.000000000000000 ) );
#439 = DIRECTION( '', ( 0.000000000000000, 0.000000000000000, -1.00000000000000 ) );
#440 = DIRECTION( '', ( 0.000000000000000, 1.00000000000000, 0.000000000000000 ) );
#441 = CARTESIAN_POINT( '', ( 3.30643715532042E-015, 0.000000000000000, 0.000000000000000 ) );
#442 = DIRECTION( '', ( 0.000000000000000, 0.000000000000000, 1.00000000000000 ) );
#443 = DIRECTION( '', ( 1.00000000000000, 0.000000000000000, 0.000000000000000 ) );
#444 = DIRECTION( '', ( 0.000000000000000, 1.00000000000000, 0.000000000000000 ) );
#445 = CARTESIAN_POINT( '', ( 3.30643715532042E-015, 0.000000000000000, 0.000000000000000 ) );
#446 = DIRECTION( '', ( 0.000000000000000, 0.000000000000000, 1.00000000000000 ) );
#447 = DIRECTION( '', ( 1.00000000000000, 0.000000000000000, 0.000000000000000 ) );
#448 = CARTESIAN_POINT( '', ( 0.000000000000000, 0.000000000000000, 21.7000000000000 ) );
#449 = DIRECTION( '', ( 0.000000000000000, 0.000000000000000, -1.00000000000000 ) );
#450 = DIRECTION( '', ( -1.00000000000000, 0.000000000000000, 0.000000000000000 ) );
#451 = CARTESIAN_POINT( '', ( 3.30643715532042E-015, 0.000000000000000, 15.9000000000000 ) );
#452 = DIRECTION( '', ( 0.000000000000000, 0.000000000000000, -1.00000000000000 ) );
#453 = DIRECTION( '', ( -1.00000000000000, 0.000000000000000, 0.000000000000000 ) );
#454 = DIRECTION( '', ( 0.000000000000000, 0.000000000000000, -1.00000000000000 ) );
#455 = CARTESIAN_POINT( '', ( 3.30643715532042E-015, 0.000000000000000, 15.9000000000000 ) );
#456 = DIRECTION( '', ( 0.000000000000000, 0.000000000000000, -1.00000000000000 ) );
#457 = DIRECTION( '', ( -1.00000000000000, 0.000000000000000, 0.000000000000000 ) );
#458 = DIRECTION( '', ( 0.000000000000000, 0.000000000000000, -1.00000000000000 ) );
#459 = DIRECTION( '', ( 0.000000000000000, 1.00000000000000, 0.000000000000000 ) );
#460 = CARTESIAN_POINT( '', ( 0.000000000000000, 0.000000000000000, 30.2000000000000 ) );
#461 = DIRECTION( '', ( 0.000000000000000, 0.000000000000000, 1.00000000000000 ) );
#462 = DIRECTION( '', ( 1.00000000000000, 0.000000000000000, 0.000000000000000 ) );
#463 = CARTESIAN_POINT( '', ( 0.000000000000000, 0.000000000000000, 30.2000000000000 ) );
#464 = DIRECTION( '', ( 0.000000000000000, 0.000000000000000, -1.00000000000000 ) );
#465 = DIRECTION( '', ( -1.00000000000000, 0.000000000000000, 0.000000000000000 ) );
#466 = CARTESIAN_POINT( '', ( 0.000000000000000, 0.000000000000000, 26.0000000000000 ) );
#467 = DIRECTION( '', ( 0.000000000000000, 0.000000000000000, -1.00000000000000 ) );
#468 = DIRECTION( '', ( -1.00000000000000, 0.000000000000000, 0.000000000000000 ) );
#469 = CARTESIAN_POINT( '', ( -9.06484931673518E-034, -1.48045113247060E-017, 35.0000000000000 ) );
#470 = DIRECTION( '', ( -7.95424110045396E-033, -1.29906905604830E-016, 1.00000000000000 ) );
#471 = DIRECTION( '', ( 0.000000000000000, -1.00000000000000, -1.29906905604830E-016 ) );
ENDSEC;
END-ISO-10303-21;
