ISO-10303-21;
HEADER;
FILE_DESCRIPTION( ( 'Unknown' ), '1' );
FILE_NAME( 'S:/LEAVE 2D&3D CAD/LEAVE 3D-STEP/Metric/PT-3D/PT50-3D/PT50-0613.stp', 'Unknown', ( 'Unknown' ), ( 'Unknown' ), 'PSStep 16.0.42', 'Unknown', '  ' );
FILE_SCHEMA( ( 'AUTOMOTIVE_DESIGN { 1 0 10303 214 1 1 1 1 }' ) );
ENDSEC;
DATA;
#1 = MECHANICAL_DESIGN_GEOMETRIC_PRESENTATION_REPRESENTATION( ' ', ( #10, #11, #12, #13, #14, #15, #16, #17, #18, #19, #20, #21, #22, #23 ), #6 );
#2 = PRODUCT_DEFINITION_CONTEXT( '', #24, 'design' );
#3 = APPLICATION_PROTOCOL_DEFINITION( 'international standard', 'automotive_design', 2001, #24 );
#4 = PRODUCT_CATEGORY_RELATIONSHIP( 'NONE', 'NONE', #25, #26 );
#5 = SHAPE_DEFINITION_REPRESENTATION( #27, #28 );
#6 =  ( GEOMETRIC_REPRESENTATION_CONTEXT( 3 )GLOBAL_UNCERTAINTY_ASSIGNED_CONTEXT( ( #31 ) )GLOBAL_UNIT_ASSIGNED_CONTEXT( ( #33, #34, #35 ) )REPRESENTATION_CONTEXT( 'NONE', 'WORKSPACE' ) );
#10 = STYLED_ITEM( '', ( #37 ), #38 );
#11 = STYLED_ITEM( '', ( #39 ), #40 );
#12 = STYLED_ITEM( '', ( #41 ), #42 );
#13 = STYLED_ITEM( '', ( #43 ), #44 );
#14 = STYLED_ITEM( '', ( #45 ), #46 );
#15 = STYLED_ITEM( '', ( #47 ), #48 );
#16 = STYLED_ITEM( '', ( #49 ), #50 );
#17 = STYLED_ITEM( '', ( #51 ), #52 );
#18 = STYLED_ITEM( '', ( #53 ), #54 );
#19 = STYLED_ITEM( '', ( #55 ), #56 );
#20 = STYLED_ITEM( '', ( #57 ), #58 );
#21 = STYLED_ITEM( '', ( #59 ), #60 );
#22 = STYLED_ITEM( '', ( #61 ), #62 );
#23 = STYLED_ITEM( '', ( #63 ), #64 );
#24 = APPLICATION_CONTEXT( 'core data for automotive mechanical design processes' );
#25 = PRODUCT_CATEGORY( 'part', 'NONE' );
#26 = PRODUCT_RELATED_PRODUCT_CATEGORY( 'detail', ' ', ( #65 ) );
#27 = PRODUCT_DEFINITION_SHAPE( 'NONE', 'NONE', #66 );
#28 = ADVANCED_BREP_SHAPE_REPRESENTATION( '1', ( #67, #68 ), #6 );
#31 = UNCERTAINTY_MEASURE_WITH_UNIT( LENGTH_MEASURE( 0.00100000000000000 ), #33, '', '' );
#33 =  ( CONVERSION_BASED_UNIT( 'MILLIMETRE', #71 )LENGTH_UNIT(  )NAMED_UNIT( #74 ) );
#34 =  ( NAMED_UNIT( #76 )PLANE_ANGLE_UNIT(  )SI_UNIT( $, .RADIAN. ) );
#35 =  ( NAMED_UNIT( #76 )SI_UNIT( $, .STERADIAN. )SOLID_ANGLE_UNIT(  ) );
#37 = PRESENTATION_STYLE_ASSIGNMENT( ( #82 ) );
#38 = ADVANCED_FACE( '', ( #83 ), #84, .T. );
#39 = PRESENTATION_STYLE_ASSIGNMENT( ( #85 ) );
#40 = ADVANCED_FACE( '', ( #86 ), #87, .T. );
#41 = PRESENTATION_STYLE_ASSIGNMENT( ( #88 ) );
#42 = ADVANCED_FACE( '', ( #89 ), #90, .T. );
#43 = PRESENTATION_STYLE_ASSIGNMENT( ( #91 ) );
#44 = ADVANCED_FACE( '', ( #92, #93 ), #94, .T. );
#45 = PRESENTATION_STYLE_ASSIGNMENT( ( #95 ) );
#46 = ADVANCED_FACE( '', ( #96, #97 ), #98, .F. );
#47 = PRESENTATION_STYLE_ASSIGNMENT( ( #99 ) );
#48 = ADVANCED_FACE( '', ( #100, #101 ), #102, .T. );
#49 = PRESENTATION_STYLE_ASSIGNMENT( ( #103 ) );
#50 = ADVANCED_FACE( '', ( #104 ), #105, .T. );
#51 = PRESENTATION_STYLE_ASSIGNMENT( ( #106 ) );
#52 = ADVANCED_FACE( '', ( #107, #108 ), #109, .T. );
#53 = PRESENTATION_STYLE_ASSIGNMENT( ( #110 ) );
#54 = ADVANCED_FACE( '', ( #111 ), #112, .F. );
#55 = PRESENTATION_STYLE_ASSIGNMENT( ( #113 ) );
#56 = ADVANCED_FACE( '', ( #114, #115 ), #116, .T. );
#57 = PRESENTATION_STYLE_ASSIGNMENT( ( #117 ) );
#58 = ADVANCED_FACE( '', ( #118, #119 ), #120, .T. );
#59 = PRESENTATION_STYLE_ASSIGNMENT( ( #121 ) );
#60 = ADVANCED_FACE( '', ( #122, #123 ), #124, .T. );
#61 = PRESENTATION_STYLE_ASSIGNMENT( ( #125 ) );
#62 = ADVANCED_FACE( '', ( #126, #127 ), #128, .T. );
#63 = PRESENTATION_STYLE_ASSIGNMENT( ( #129 ) );
#64 = ADVANCED_FACE( '', ( #130 ), #131, .T. );
#65 = PRODUCT( '1', '1', 'PART-1-DESC', ( #132 ) );
#66 = PRODUCT_DEFINITION( 'NONE', 'NONE', #133, #2 );
#67 = MANIFOLD_SOLID_BREP( '1', #134 );
#68 = AXIS2_PLACEMENT_3D( '', #135, #136, #137 );
#71 = LENGTH_MEASURE_WITH_UNIT( LENGTH_MEASURE( 1.00000000000000 ), #138 );
#74 = DIMENSIONAL_EXPONENTS( 1.00000000000000, 0.000000000000000, 0.000000000000000, 0.000000000000000, 0.000000000000000, 0.000000000000000, 0.000000000000000 );
#76 = DIMENSIONAL_EXPONENTS( 0.000000000000000, 0.000000000000000, 0.000000000000000, 0.000000000000000, 0.000000000000000, 0.000000000000000, 0.000000000000000 );
#82 = SURFACE_STYLE_USAGE( .BOTH., #139 );
#83 = FACE_OUTER_BOUND( '', #140, .T. );
#84 = PLANE( '', #141 );
#85 = SURFACE_STYLE_USAGE( .BOTH., #142 );
#86 = FACE_OUTER_BOUND( '', #143, .T. );
#87 = PLANE( '', #144 );
#88 = SURFACE_STYLE_USAGE( .BOTH., #145 );
#89 = FACE_OUTER_BOUND( '', #146, .T. );
#90 = PLANE( '', #147 );
#91 = SURFACE_STYLE_USAGE( .BOTH., #148 );
#92 = FACE_BOUND( '', #149, .T. );
#93 = FACE_OUTER_BOUND( '', #150, .T. );
#94 = CONICAL_SURFACE( '', #151, 3.00000000000000, 0.785398163397448 );
#95 = SURFACE_STYLE_USAGE( .BOTH., #152 );
#96 = FACE_BOUND( '', #153, .T. );
#97 = FACE_OUTER_BOUND( '', #154, .T. );
#98 = PLANE( '', #155 );
#99 = SURFACE_STYLE_USAGE( .BOTH., #156 );
#100 = FACE_OUTER_BOUND( '', #157, .T. );
#101 = FACE_OUTER_BOUND( '', #158, .T. );
#102 = CYLINDRICAL_SURFACE( '', #159, 3.00000000000000 );
#103 = SURFACE_STYLE_USAGE( .BOTH., #160 );
#104 = FACE_OUTER_BOUND( '', #161, .T. );
#105 = PLANE( '', #162 );
#106 = SURFACE_STYLE_USAGE( .BOTH., #163 );
#107 = FACE_BOUND( '', #164, .T. );
#108 = FACE_OUTER_BOUND( '', #165, .T. );
#109 = CONICAL_SURFACE( '', #166, 6.50000000000000, 0.785398163397445 );
#110 = SURFACE_STYLE_USAGE( .BOTH., #167 );
#111 = FACE_OUTER_BOUND( '', #168, .T. );
#112 = PLANE( '', #169 );
#113 = SURFACE_STYLE_USAGE( .BOTH., #170 );
#114 = FACE_BOUND( '', #171, .T. );
#115 = FACE_OUTER_BOUND( '', #172, .T. );
#116 = PLANE( '', #173 );
#117 = SURFACE_STYLE_USAGE( .BOTH., #174 );
#118 = FACE_OUTER_BOUND( '', #175, .T. );
#119 = FACE_OUTER_BOUND( '', #176, .T. );
#120 = CYLINDRICAL_SURFACE( '', #177, 6.50000000000000 );
#121 = SURFACE_STYLE_USAGE( .BOTH., #178 );
#122 = FACE_BOUND( '', #179, .T. );
#123 = FACE_OUTER_BOUND( '', #180, .T. );
#124 = CONICAL_SURFACE( '', #181, 5.54630228668834, 0.226892802759264 );
#125 = SURFACE_STYLE_USAGE( .BOTH., #182 );
#126 = FACE_OUTER_BOUND( '', #183, .T. );
#127 = FACE_OUTER_BOUND( '', #184, .T. );
#128 = SPHERICAL_SURFACE( '', #185, 5.00000000000000 );
#129 = SURFACE_STYLE_USAGE( .BOTH., #186 );
#130 = FACE_OUTER_BOUND( '', #187, .T. );
#131 = PLANE( '', #188 );
#132 = PRODUCT_CONTEXT( '', #24, 'mechanical' );
#133 = PRODUCT_DEFINITION_FORMATION_WITH_SPECIFIED_SOURCE( ' ', 'NONE', #65, .NOT_KNOWN. );
#134 = CLOSED_SHELL( '', ( #62, #38, #58, #46, #56, #52, #60, #48, #54, #42, #50, #40, #64, #44 ) );
#135 = CARTESIAN_POINT( '', ( 0.000000000000000, 0.000000000000000, 0.000000000000000 ) );
#136 = DIRECTION( '', ( 0.000000000000000, 0.000000000000000, 1.00000000000000 ) );
#137 = DIRECTION( '', ( 1.00000000000000, 0.000000000000000, 0.000000000000000 ) );
#138 =  ( LENGTH_UNIT(  )NAMED_UNIT( #74 )SI_UNIT( .MILLI., .METRE. ) );
#139 = SURFACE_SIDE_STYLE( '', ( #190 ) );
#140 = EDGE_LOOP( '', ( #191 ) );
#141 = AXIS2_PLACEMENT_3D( '', #192, #193, #194 );
#142 = SURFACE_SIDE_STYLE( '', ( #195 ) );
#143 = EDGE_LOOP( '', ( #196, #197, #198, #199 ) );
#144 = AXIS2_PLACEMENT_3D( '', #200, #201, #202 );
#145 = SURFACE_SIDE_STYLE( '', ( #203 ) );
#146 = EDGE_LOOP( '', ( #204, #205, #206, #207 ) );
#147 = AXIS2_PLACEMENT_3D( '', #208, #209, #210 );
#148 = SURFACE_SIDE_STYLE( '', ( #211 ) );
#149 = EDGE_LOOP( '', ( #212 ) );
#150 = EDGE_LOOP( '', ( #213 ) );
#151 = AXIS2_PLACEMENT_3D( '', #214, #215, #216 );
#152 = SURFACE_SIDE_STYLE( '', ( #217 ) );
#153 = EDGE_LOOP( '', ( #218 ) );
#154 = EDGE_LOOP( '', ( #219, #220, #221, #222 ) );
#155 = AXIS2_PLACEMENT_3D( '', #223, #224, #225 );
#156 = SURFACE_SIDE_STYLE( '', ( #226 ) );
#157 = EDGE_LOOP( '', ( #227 ) );
#158 = EDGE_LOOP( '', ( #228 ) );
#159 = AXIS2_PLACEMENT_3D( '', #229, #230, #231 );
#160 = SURFACE_SIDE_STYLE( '', ( #232 ) );
#161 = EDGE_LOOP( '', ( #233, #234 ) );
#162 = AXIS2_PLACEMENT_3D( '', #235, #236, #237 );
#163 = SURFACE_SIDE_STYLE( '', ( #238 ) );
#164 = EDGE_LOOP( '', ( #239 ) );
#165 = EDGE_LOOP( '', ( #240 ) );
#166 = AXIS2_PLACEMENT_3D( '', #241, #242, #243 );
#167 = SURFACE_SIDE_STYLE( '', ( #244 ) );
#168 = EDGE_LOOP( '', ( #245 ) );
#169 = AXIS2_PLACEMENT_3D( '', #246, #247, #248 );
#170 = SURFACE_SIDE_STYLE( '', ( #249 ) );
#171 = EDGE_LOOP( '', ( #250 ) );
#172 = EDGE_LOOP( '', ( #251 ) );
#173 = AXIS2_PLACEMENT_3D( '', #252, #253, #254 );
#174 = SURFACE_SIDE_STYLE( '', ( #255 ) );
#175 = EDGE_LOOP( '', ( #256 ) );
#176 = EDGE_LOOP( '', ( #257, #258, #259, #260, #261, #262, #263, #264 ) );
#177 = AXIS2_PLACEMENT_3D( '', #265, #266, #267 );
#178 = SURFACE_SIDE_STYLE( '', ( #268 ) );
#179 = EDGE_LOOP( '', ( #269 ) );
#180 = EDGE_LOOP( '', ( #270 ) );
#181 = AXIS2_PLACEMENT_3D( '', #271, #272, #273 );
#182 = SURFACE_SIDE_STYLE( '', ( #274 ) );
#183 = EDGE_LOOP( '', ( #275 ) );
#184 = EDGE_LOOP( '', ( #276 ) );
#185 = AXIS2_PLACEMENT_3D( '', #277, #278, #279 );
#186 = SURFACE_SIDE_STYLE( '', ( #280 ) );
#187 = EDGE_LOOP( '', ( #281, #282 ) );
#188 = AXIS2_PLACEMENT_3D( '', #283, #284, #285 );
#190 = SURFACE_STYLE_FILL_AREA( #286 );
#191 = ORIENTED_EDGE( '', *, *, #287, .T. );
#192 = CARTESIAN_POINT( '', ( 0.000000000000000, 0.000000000000000, 13.0000000000000 ) );
#193 = DIRECTION( '', ( 0.000000000000000, 0.000000000000000, 1.00000000000000 ) );
#194 = DIRECTION( '', ( 1.00000000000000, 0.000000000000000, 0.000000000000000 ) );
#195 = SURFACE_STYLE_FILL_AREA( #288 );
#196 = ORIENTED_EDGE( '', *, *, #289, .T. );
#197 = ORIENTED_EDGE( '', *, *, #290, .F. );
#198 = ORIENTED_EDGE( '', *, *, #291, .T. );
#199 = ORIENTED_EDGE( '', *, *, #292, .T. );
#200 = CARTESIAN_POINT( '', ( -5.50000000000000, -6.50000000000000, 1.22464679914735E-016 ) );
#201 = DIRECTION( '', ( -1.00000000000000, 0.000000000000000, 0.000000000000000 ) );
#202 = DIRECTION( '', ( 0.000000000000000, 0.000000000000000, 1.00000000000000 ) );
#203 = SURFACE_STYLE_FILL_AREA( #293 );
#204 = ORIENTED_EDGE( '', *, *, #294, .T. );
#205 = ORIENTED_EDGE( '', *, *, #295, .T. );
#206 = ORIENTED_EDGE( '', *, *, #296, .T. );
#207 = ORIENTED_EDGE( '', *, *, #297, .F. );
#208 = CARTESIAN_POINT( '', ( 5.50000000000000, -6.50000000000000, 5.80000000000000 ) );
#209 = DIRECTION( '', ( 1.00000000000000, 0.000000000000000, 2.99090254478760E-016 ) );
#210 = DIRECTION( '', ( 2.99090254478760E-016, 0.000000000000000, -1.00000000000000 ) );
#211 = SURFACE_STYLE_FILL_AREA( #298 );
#212 = ORIENTED_EDGE( '', *, *, #299, .F. );
#213 = ORIENTED_EDGE( '', *, *, #300, .F. );
#214 = CARTESIAN_POINT( '', ( 0.000000000000000, 0.000000000000000, -7.50000000000000 ) );
#215 = DIRECTION( '', ( -0.000000000000000, -0.000000000000000, 1.00000000000000 ) );
#216 = DIRECTION( '', ( 1.00000000000000, 0.000000000000000, 0.000000000000000 ) );
#217 = SURFACE_STYLE_FILL_AREA( #301 );
#218 = ORIENTED_EDGE( '', *, *, #302, .T. );
#219 = ORIENTED_EDGE( '', *, *, #290, .T. );
#220 = ORIENTED_EDGE( '', *, *, #303, .F. );
#221 = ORIENTED_EDGE( '', *, *, #295, .F. );
#222 = ORIENTED_EDGE( '', *, *, #304, .F. );
#223 = CARTESIAN_POINT( '', ( 6.93889390390723E-015, 0.000000000000000, 0.000000000000000 ) );
#224 = DIRECTION( '', ( 0.000000000000000, 0.000000000000000, 1.00000000000000 ) );
#225 = DIRECTION( '', ( 1.00000000000000, 0.000000000000000, 0.000000000000000 ) );
#226 = SURFACE_STYLE_FILL_AREA( #305 );
#227 = ORIENTED_EDGE( '', *, *, #300, .T. );
#228 = ORIENTED_EDGE( '', *, *, #302, .F. );
#229 = CARTESIAN_POINT( '', ( 0.000000000000000, 0.000000000000000, -8.00000000000000 ) );
#230 = DIRECTION( '', ( -0.000000000000000, -0.000000000000000, -1.00000000000000 ) );
#231 = DIRECTION( '', ( 1.00000000000000, 0.000000000000000, 0.000000000000000 ) );
#232 = SURFACE_STYLE_FILL_AREA( #306 );
#233 = ORIENTED_EDGE( '', *, *, #297, .T. );
#234 = ORIENTED_EDGE( '', *, *, #307, .T. );
#235 = CARTESIAN_POINT( '', ( 6.50000000000000, -6.50000000000000, 5.80000000000000 ) );
#236 = DIRECTION( '', ( 0.000000000000000, 0.000000000000000, -1.00000000000000 ) );
#237 = DIRECTION( '', ( -1.00000000000000, 0.000000000000000, 0.000000000000000 ) );
#238 = SURFACE_STYLE_FILL_AREA( #308 );
#239 = ORIENTED_EDGE( '', *, *, #309, .T. );
#240 = ORIENTED_EDGE( '', *, *, #310, .F. );
#241 = CARTESIAN_POINT( '', ( 0.000000000000000, 0.000000000000000, 8.94630228668834 ) );
#242 = DIRECTION( '', ( -0.000000000000000, 0.000000000000000, -1.00000000000000 ) );
#243 = DIRECTION( '', ( -1.00000000000000, 0.000000000000000, 0.000000000000000 ) );
#244 = SURFACE_STYLE_FILL_AREA( #311 );
#245 = ORIENTED_EDGE( '', *, *, #299, .T. );
#246 = CARTESIAN_POINT( '', ( 0.000000000000000, 0.000000000000000, -8.00000000000000 ) );
#247 = DIRECTION( '', ( 0.000000000000000, 0.000000000000000, 1.00000000000000 ) );
#248 = DIRECTION( '', ( 1.00000000000000, 0.000000000000000, 0.000000000000000 ) );
#249 = SURFACE_STYLE_FILL_AREA( #312 );
#250 = ORIENTED_EDGE( '', *, *, #313, .F. );
#251 = ORIENTED_EDGE( '', *, *, #314, .F. );
#252 = CARTESIAN_POINT( '', ( 6.93889390390723E-015, 0.000000000000000, 11.4000000000000 ) );
#253 = DIRECTION( '', ( 0.000000000000000, 0.000000000000000, 1.00000000000000 ) );
#254 = DIRECTION( '', ( 1.00000000000000, 0.000000000000000, 0.000000000000000 ) );
#255 = SURFACE_STYLE_FILL_AREA( #315 );
#256 = ORIENTED_EDGE( '', *, *, #310, .T. );
#257 = ORIENTED_EDGE( '', *, *, #289, .F. );
#258 = ORIENTED_EDGE( '', *, *, #316, .F. );
#259 = ORIENTED_EDGE( '', *, *, #291, .F. );
#260 = ORIENTED_EDGE( '', *, *, #304, .T. );
#261 = ORIENTED_EDGE( '', *, *, #294, .F. );
#262 = ORIENTED_EDGE( '', *, *, #307, .F. );
#263 = ORIENTED_EDGE( '', *, *, #296, .F. );
#264 = ORIENTED_EDGE( '', *, *, #303, .T. );
#265 = CARTESIAN_POINT( '', ( 6.93889390390723E-015, 0.000000000000000, 11.4000000000000 ) );
#266 = DIRECTION( '', ( -0.000000000000000, -0.000000000000000, 1.00000000000000 ) );
#267 = DIRECTION( '', ( -1.00000000000000, 0.000000000000000, 0.000000000000000 ) );
#268 = SURFACE_STYLE_FILL_AREA( #317 );
#269 = ORIENTED_EDGE( '', *, *, #314, .T. );
#270 = ORIENTED_EDGE( '', *, *, #309, .F. );
#271 = CARTESIAN_POINT( '', ( 0.000000000000000, 0.000000000000000, 9.90000000000000 ) );
#272 = DIRECTION( '', ( -0.000000000000000, 0.000000000000000, -1.00000000000000 ) );
#273 = DIRECTION( '', ( -1.00000000000000, 0.000000000000000, 0.000000000000000 ) );
#274 = SURFACE_STYLE_FILL_AREA( #318 );
#275 = ORIENTED_EDGE( '', *, *, #313, .T. );
#276 = ORIENTED_EDGE( '', *, *, #287, .F. );
#277 = CARTESIAN_POINT( '', ( 0.000000000000000, 0.000000000000000, 9.50000000000000 ) );
#278 = DIRECTION( '', ( 0.000000000000000, 0.000000000000000, 1.00000000000000 ) );
#279 = DIRECTION( '', ( 6.12303176911189E-017, 1.00000000000000, 0.000000000000000 ) );
#280 = SURFACE_STYLE_FILL_AREA( #319 );
#281 = ORIENTED_EDGE( '', *, *, #316, .T. );
#282 = ORIENTED_EDGE( '', *, *, #292, .F. );
#283 = CARTESIAN_POINT( '', ( -5.50000000000000, -6.50000000000000, 5.80000000000000 ) );
#284 = DIRECTION( '', ( 0.000000000000000, 0.000000000000000, -1.00000000000000 ) );
#285 = DIRECTION( '', ( -1.00000000000000, 0.000000000000000, 0.000000000000000 ) );
#286 = FILL_AREA_STYLE( '', ( #320 ) );
#287 = EDGE_CURVE( '', #321, #321, #322, .T. );
#288 = FILL_AREA_STYLE( '', ( #323 ) );
#289 = EDGE_CURVE( '', #324, #325, #326, .T. );
#290 = EDGE_CURVE( '', #327, #325, #328, .T. );
#291 = EDGE_CURVE( '', #327, #329, #330, .F. );
#292 = EDGE_CURVE( '', #329, #324, #331, .T. );
#293 = FILL_AREA_STYLE( '', ( #332 ) );
#294 = EDGE_CURVE( '', #333, #334, #335, .T. );
#295 = EDGE_CURVE( '', #334, #336, #337, .T. );
#296 = EDGE_CURVE( '', #336, #338, #339, .F. );
#297 = EDGE_CURVE( '', #333, #338, #340, .T. );
#298 = FILL_AREA_STYLE( '', ( #341 ) );
#299 = EDGE_CURVE( '', #342, #342, #343, .F. );
#300 = EDGE_CURVE( '', #344, #344, #345, .T. );
#301 = FILL_AREA_STYLE( '', ( #346 ) );
#302 = EDGE_CURVE( '', #347, #347, #348, .T. );
#303 = EDGE_CURVE( '', #336, #325, #349, .T. );
#304 = EDGE_CURVE( '', #327, #334, #350, .T. );
#305 = FILL_AREA_STYLE( '', ( #351 ) );
#306 = FILL_AREA_STYLE( '', ( #352 ) );
#307 = EDGE_CURVE( '', #338, #333, #353, .T. );
#308 = FILL_AREA_STYLE( '', ( #354 ) );
#309 = EDGE_CURVE( '', #355, #355, #356, .T. );
#310 = EDGE_CURVE( '', #357, #357, #358, .T. );
#311 = FILL_AREA_STYLE( '', ( #359 ) );
#312 = FILL_AREA_STYLE( '', ( #360 ) );
#313 = EDGE_CURVE( '', #361, #361, #362, .T. );
#314 = EDGE_CURVE( '', #363, #363, #364, .T. );
#315 = FILL_AREA_STYLE( '', ( #365 ) );
#316 = EDGE_CURVE( '', #329, #324, #366, .T. );
#317 = FILL_AREA_STYLE( '', ( #367 ) );
#318 = FILL_AREA_STYLE( '', ( #368 ) );
#319 = FILL_AREA_STYLE( '', ( #369 ) );
#320 = FILL_AREA_STYLE_COLOUR( '', #370 );
#321 = VERTEX_POINT( '', #371 );
#322 = CIRCLE( '', #372, 3.57071421427143 );
#323 = FILL_AREA_STYLE_COLOUR( '', #373 );
#324 = VERTEX_POINT( '', #374 );
#325 = VERTEX_POINT( '', #375 );
#326 = LINE( '', #376, #377 );
#327 = VERTEX_POINT( '', #378 );
#328 = LINE( '', #379, #380 );
#329 = VERTEX_POINT( '', #381 );
#330 = LINE( '', #382, #383 );
#331 = LINE( '', #384, #385 );
#332 = FILL_AREA_STYLE_COLOUR( '', #386 );
#333 = VERTEX_POINT( '', #387 );
#334 = VERTEX_POINT( '', #388 );
#335 = LINE( '', #389, #390 );
#336 = VERTEX_POINT( '', #391 );
#337 = LINE( '', #392, #393 );
#338 = VERTEX_POINT( '', #394 );
#339 = LINE( '', #395, #396 );
#340 = LINE( '', #397, #398 );
#341 = FILL_AREA_STYLE_COLOUR( '', #399 );
#342 = VERTEX_POINT( '', #400 );
#343 = CIRCLE( '', #401, 2.50000000000000 );
#344 = VERTEX_POINT( '', #402 );
#345 = CIRCLE( '', #403, 3.00000000000000 );
#346 = FILL_AREA_STYLE_COLOUR( '', #404 );
#347 = VERTEX_POINT( '', #405 );
#348 = CIRCLE( '', #406, 3.00000000000000 );
#349 = CIRCLE( '', #407, 6.50000000000000 );
#350 = CIRCLE( '', #408, 6.50000000000000 );
#351 = FILL_AREA_STYLE_COLOUR( '', #409 );
#352 = FILL_AREA_STYLE_COLOUR( '', #410 );
#353 = CIRCLE( '', #411, 6.50000000000000 );
#354 = FILL_AREA_STYLE_COLOUR( '', #412 );
#355 = VERTEX_POINT( '', #413 );
#356 = CIRCLE( '', #414, 5.54630228668834 );
#357 = VERTEX_POINT( '', #415 );
#358 = CIRCLE( '', #416, 6.50000000000000 );
#359 = FILL_AREA_STYLE_COLOUR( '', #417 );
#360 = FILL_AREA_STYLE_COLOUR( '', #418 );
#361 = VERTEX_POINT( '', #419 );
#362 = CIRCLE( '', #420, 4.62493243193887 );
#363 = VERTEX_POINT( '', #421 );
#364 = CIRCLE( '', #422, 5.20000000000000 );
#365 = FILL_AREA_STYLE_COLOUR( '', #423 );
#366 = CIRCLE( '', #424, 6.50000000000000 );
#367 = FILL_AREA_STYLE_COLOUR( '', #425 );
#368 = FILL_AREA_STYLE_COLOUR( '', #426 );
#369 = FILL_AREA_STYLE_COLOUR( '', #427 );
#370 = COLOUR_RGB( '', 1.00000000000000, 1.00000000000000, 1.00000000000000 );
#371 = CARTESIAN_POINT( '', ( 3.57071421427143, 0.000000000000000, 13.0000000000000 ) );
#372 = AXIS2_PLACEMENT_3D( '', #428, #429, #430 );
#373 = COLOUR_RGB( '', 0.200000002980232, 0.200000002980232, 0.200000002980232 );
#374 = CARTESIAN_POINT( '', ( -5.50000000000000, 3.46410161513774, 5.80000000000000 ) );
#375 = CARTESIAN_POINT( '', ( -5.50000000000000, 3.46410161513774, 0.000000000000000 ) );
#376 = CARTESIAN_POINT( '', ( -5.50000000000000, 3.46410161513774, 11.4000000000000 ) );
#377 = VECTOR( '', #431, 1000.00000000000 );
#378 = CARTESIAN_POINT( '', ( -5.50000000000000, -3.46410161513774, 1.22464679914735E-016 ) );
#379 = CARTESIAN_POINT( '', ( -5.50000000000000, -6.50000000000000, 1.22464679914735E-016 ) );
#380 = VECTOR( '', #432, 1000.00000000000 );
#381 = CARTESIAN_POINT( '', ( -5.50000000000000, -3.46410161513774, 5.80000000000000 ) );
#382 = CARTESIAN_POINT( '', ( -5.50000000000000, -3.46410161513774, 11.4000000000000 ) );
#383 = VECTOR( '', #433, 1000.00000000000 );
#384 = CARTESIAN_POINT( '', ( -5.50000000000000, -6.50000000000000, 5.80000000000000 ) );
#385 = VECTOR( '', #434, 1000.00000000000 );
#386 = COLOUR_RGB( '', 0.200000002980232, 0.200000002980232, 0.200000002980232 );
#387 = CARTESIAN_POINT( '', ( 5.50000000000000, -3.46410161513777, 5.80000000000000 ) );
#388 = CARTESIAN_POINT( '', ( 5.50000000000000, -3.46410161513777, 0.000000000000000 ) );
#389 = CARTESIAN_POINT( '', ( 5.50000000000000, -3.46410161513777, 11.4000000000000 ) );
#390 = VECTOR( '', #435, 1000.00000000000 );
#391 = CARTESIAN_POINT( '', ( 5.50000000000000, 3.46410161513777, 0.000000000000000 ) );
#392 = CARTESIAN_POINT( '', ( 5.50000000000000, -6.50000000000000, 0.000000000000000 ) );
#393 = VECTOR( '', #436, 1000.00000000000 );
#394 = CARTESIAN_POINT( '', ( 5.50000000000000, 3.46410161513777, 5.80000000000000 ) );
#395 = CARTESIAN_POINT( '', ( 5.50000000000000, 3.46410161513777, 11.4000000000000 ) );
#396 = VECTOR( '', #437, 1000.00000000000 );
#397 = CARTESIAN_POINT( '', ( 5.50000000000000, -6.50000000000000, 5.80000000000000 ) );
#398 = VECTOR( '', #438, 1000.00000000000 );
#399 = COLOUR_RGB( '', 0.200000002980232, 0.200000002980232, 0.200000002980232 );
#400 = CARTESIAN_POINT( '', ( 2.50000000000000, 0.000000000000000, -8.00000000000000 ) );
#401 = AXIS2_PLACEMENT_3D( '', #439, #440, #441 );
#402 = CARTESIAN_POINT( '', ( 3.00000000000000, 0.000000000000000, -7.50000000000000 ) );
#403 = AXIS2_PLACEMENT_3D( '', #442, #443, #444 );
#404 = COLOUR_RGB( '', 0.200000002980232, 0.200000002980232, 0.200000002980232 );
#405 = CARTESIAN_POINT( '', ( 3.00000000000000, 0.000000000000000, 0.000000000000000 ) );
#406 = AXIS2_PLACEMENT_3D( '', #445, #446, #447 );
#407 = AXIS2_PLACEMENT_3D( '', #448, #449, #450 );
#408 = AXIS2_PLACEMENT_3D( '', #451, #452, #453 );
#409 = COLOUR_RGB( '', 0.200000002980232, 0.200000002980232, 0.200000002980232 );
#410 = COLOUR_RGB( '', 0.200000002980232, 0.200000002980232, 0.200000002980232 );
#411 = AXIS2_PLACEMENT_3D( '', #454, #455, #456 );
#412 = COLOUR_RGB( '', 0.200000002980232, 0.200000002980232, 0.200000002980232 );
#413 = CARTESIAN_POINT( '', ( -5.54630228668834, 0.000000000000000, 9.90000000000000 ) );
#414 = AXIS2_PLACEMENT_3D( '', #457, #458, #459 );
#415 = CARTESIAN_POINT( '', ( -6.50000000000000, 0.000000000000000, 8.94630228668834 ) );
#416 = AXIS2_PLACEMENT_3D( '', #460, #461, #462 );
#417 = COLOUR_RGB( '', 0.200000002980232, 0.200000002980232, 0.200000002980232 );
#418 = COLOUR_RGB( '', 0.200000002980232, 0.200000002980232, 0.200000002980232 );
#419 = CARTESIAN_POINT( '', ( 4.62493243193887, 0.000000000000000, 11.4000000000000 ) );
#420 = AXIS2_PLACEMENT_3D( '', #463, #464, #465 );
#421 = CARTESIAN_POINT( '', ( -5.20000000000000, 0.000000000000000, 11.4000000000000 ) );
#422 = AXIS2_PLACEMENT_3D( '', #466, #467, #468 );
#423 = COLOUR_RGB( '', 0.200000002980232, 0.200000002980232, 0.200000002980232 );
#424 = AXIS2_PLACEMENT_3D( '', #469, #470, #471 );
#425 = COLOUR_RGB( '', 0.200000002980232, 0.200000002980232, 0.200000002980232 );
#426 = COLOUR_RGB( '', 1.00000000000000, 1.00000000000000, 1.00000000000000 );
#427 = COLOUR_RGB( '', 0.200000002980232, 0.200000002980232, 0.200000002980232 );
#428 = CARTESIAN_POINT( '', ( 0.000000000000000, 0.000000000000000, 13.0000000000000 ) );
#429 = DIRECTION( '', ( 0.000000000000000, 0.000000000000000, 1.00000000000000 ) );
#430 = DIRECTION( '', ( 1.00000000000000, 0.000000000000000, 0.000000000000000 ) );
#431 = DIRECTION( '', ( 0.000000000000000, 0.000000000000000, -1.00000000000000 ) );
#432 = DIRECTION( '', ( 0.000000000000000, 1.00000000000000, 0.000000000000000 ) );
#433 = DIRECTION( '', ( 0.000000000000000, 0.000000000000000, -1.00000000000000 ) );
#434 = DIRECTION( '', ( 0.000000000000000, 1.00000000000000, 0.000000000000000 ) );
#435 = DIRECTION( '', ( 0.000000000000000, 0.000000000000000, -1.00000000000000 ) );
#436 = DIRECTION( '', ( 0.000000000000000, 1.00000000000000, 0.000000000000000 ) );
#437 = DIRECTION( '', ( 0.000000000000000, 0.000000000000000, -1.00000000000000 ) );
#438 = DIRECTION( '', ( 0.000000000000000, 1.00000000000000, 0.000000000000000 ) );
#439 = CARTESIAN_POINT( '', ( 0.000000000000000, 0.000000000000000, -8.00000000000000 ) );
#440 = DIRECTION( '', ( 0.000000000000000, 0.000000000000000, 1.00000000000000 ) );
#441 = DIRECTION( '', ( 1.00000000000000, 0.000000000000000, 0.000000000000000 ) );
#442 = CARTESIAN_POINT( '', ( 0.000000000000000, 0.000000000000000, -7.50000000000000 ) );
#443 = DIRECTION( '', ( 0.000000000000000, 0.000000000000000, 1.00000000000000 ) );
#444 = DIRECTION( '', ( 1.00000000000000, 0.000000000000000, 0.000000000000000 ) );
#445 = CARTESIAN_POINT( '', ( 0.000000000000000, 0.000000000000000, 0.000000000000000 ) );
#446 = DIRECTION( '', ( 0.000000000000000, 0.000000000000000, 1.00000000000000 ) );
#447 = DIRECTION( '', ( 1.00000000000000, 0.000000000000000, 0.000000000000000 ) );
#448 = CARTESIAN_POINT( '', ( 6.93889390390723E-015, 0.000000000000000, 0.000000000000000 ) );
#449 = DIRECTION( '', ( 0.000000000000000, 0.000000000000000, 1.00000000000000 ) );
#450 = DIRECTION( '', ( 1.00000000000000, 0.000000000000000, 0.000000000000000 ) );
#451 = CARTESIAN_POINT( '', ( 6.93889390390723E-015, 0.000000000000000, 0.000000000000000 ) );
#452 = DIRECTION( '', ( 0.000000000000000, 0.000000000000000, 1.00000000000000 ) );
#453 = DIRECTION( '', ( 1.00000000000000, 0.000000000000000, 0.000000000000000 ) );
#454 = CARTESIAN_POINT( '', ( 6.93889390390723E-015, 0.000000000000000, 5.80000000000000 ) );
#455 = DIRECTION( '', ( 0.000000000000000, 0.000000000000000, -1.00000000000000 ) );
#456 = DIRECTION( '', ( -1.00000000000000, 0.000000000000000, 0.000000000000000 ) );
#457 = CARTESIAN_POINT( '', ( 0.000000000000000, 0.000000000000000, 9.90000000000000 ) );
#458 = DIRECTION( '', ( 0.000000000000000, 0.000000000000000, -1.00000000000000 ) );
#459 = DIRECTION( '', ( -1.00000000000000, 0.000000000000000, 0.000000000000000 ) );
#460 = CARTESIAN_POINT( '', ( 0.000000000000000, 0.000000000000000, 8.94630228668834 ) );
#461 = DIRECTION( '', ( 0.000000000000000, 0.000000000000000, -1.00000000000000 ) );
#462 = DIRECTION( '', ( -1.00000000000000, 0.000000000000000, 0.000000000000000 ) );
#463 = CARTESIAN_POINT( '', ( 0.000000000000000, 0.000000000000000, 11.4000000000000 ) );
#464 = DIRECTION( '', ( 0.000000000000000, 0.000000000000000, 1.00000000000000 ) );
#465 = DIRECTION( '', ( 1.00000000000000, 0.000000000000000, 0.000000000000000 ) );
#466 = CARTESIAN_POINT( '', ( 0.000000000000000, 0.000000000000000, 11.4000000000000 ) );
#467 = DIRECTION( '', ( 0.000000000000000, 0.000000000000000, -1.00000000000000 ) );
#468 = DIRECTION( '', ( -1.00000000000000, 0.000000000000000, 0.000000000000000 ) );
#469 = CARTESIAN_POINT( '', ( 6.93889390390723E-015, 0.000000000000000, 5.80000000000000 ) );
#470 = DIRECTION( '', ( 0.000000000000000, 0.000000000000000, -1.00000000000000 ) );
#471 = DIRECTION( '', ( -1.00000000000000, 0.000000000000000, 0.000000000000000 ) );
ENDSEC;
END-ISO-10303-21;
