ISO-10303-21;
HEADER;
FILE_DESCRIPTION( ( 'Unknown' ), '1' );
FILE_NAME( 'S:/LEAVE 2D&3D CAD/LEAVE 3D-STEP/Metric/PT-3D/PT50-3D/PT50-0818.stp', 'Unknown', ( 'Unknown' ), ( 'Unknown' ), 'PSStep 16.0.42', 'Unknown', '  ' );
FILE_SCHEMA( ( 'AUTOMOTIVE_DESIGN { 1 0 10303 214 1 1 1 1 }' ) );
ENDSEC;
DATA;
#1 = MECHANICAL_DESIGN_GEOMETRIC_PRESENTATION_REPRESENTATION( ' ', ( #10, #11, #12, #13, #14, #15, #16, #17, #18, #19, #20, #21, #22, #23 ), #6 );
#2 = PRODUCT_DEFINITION_CONTEXT( '', #24, 'design' );
#3 = APPLICATION_PROTOCOL_DEFINITION( 'international standard', 'automotive_design', 2001, #24 );
#4 = PRODUCT_CATEGORY_RELATIONSHIP( 'NONE', 'NONE', #25, #26 );
#5 = SHAPE_DEFINITION_REPRESENTATION( #27, #28 );
#6 =  ( GEOMETRIC_REPRESENTATION_CONTEXT( 3 )GLOBAL_UNCERTAINTY_ASSIGNED_CONTEXT( ( #31 ) )GLOBAL_UNIT_ASSIGNED_CONTEXT( ( #33, #34, #35 ) )REPRESENTATION_CONTEXT( 'NONE', 'WORKSPACE' ) );
#10 = STYLED_ITEM( '', ( #37 ), #38 );
#11 = STYLED_ITEM( '', ( #39 ), #40 );
#12 = STYLED_ITEM( '', ( #41 ), #42 );
#13 = STYLED_ITEM( '', ( #43 ), #44 );
#14 = STYLED_ITEM( '', ( #45 ), #46 );
#15 = STYLED_ITEM( '', ( #47 ), #48 );
#16 = STYLED_ITEM( '', ( #49 ), #50 );
#17 = STYLED_ITEM( '', ( #51 ), #52 );
#18 = STYLED_ITEM( '', ( #53 ), #54 );
#19 = STYLED_ITEM( '', ( #55 ), #56 );
#20 = STYLED_ITEM( '', ( #57 ), #58 );
#21 = STYLED_ITEM( '', ( #59 ), #60 );
#22 = STYLED_ITEM( '', ( #61 ), #62 );
#23 = STYLED_ITEM( '', ( #63 ), #64 );
#24 = APPLICATION_CONTEXT( 'core data for automotive mechanical design processes' );
#25 = PRODUCT_CATEGORY( 'part', 'NONE' );
#26 = PRODUCT_RELATED_PRODUCT_CATEGORY( 'detail', ' ', ( #65 ) );
#27 = PRODUCT_DEFINITION_SHAPE( 'NONE', 'NONE', #66 );
#28 = ADVANCED_BREP_SHAPE_REPRESENTATION( '1', ( #67, #68 ), #6 );
#31 = UNCERTAINTY_MEASURE_WITH_UNIT( LENGTH_MEASURE( 0.00100000000000000 ), #33, '', '' );
#33 =  ( CONVERSION_BASED_UNIT( 'MILLIMETRE', #71 )LENGTH_UNIT(  )NAMED_UNIT( #74 ) );
#34 =  ( NAMED_UNIT( #76 )PLANE_ANGLE_UNIT(  )SI_UNIT( $, .RADIAN. ) );
#35 =  ( NAMED_UNIT( #76 )SI_UNIT( $, .STERADIAN. )SOLID_ANGLE_UNIT(  ) );
#37 = PRESENTATION_STYLE_ASSIGNMENT( ( #82 ) );
#38 = ADVANCED_FACE( '', ( #83 ), #84, .T. );
#39 = PRESENTATION_STYLE_ASSIGNMENT( ( #85 ) );
#40 = ADVANCED_FACE( '', ( #86 ), #87, .T. );
#41 = PRESENTATION_STYLE_ASSIGNMENT( ( #88 ) );
#42 = ADVANCED_FACE( '', ( #89, #90 ), #91, .T. );
#43 = PRESENTATION_STYLE_ASSIGNMENT( ( #92 ) );
#44 = ADVANCED_FACE( '', ( #93 ), #94, .T. );
#45 = PRESENTATION_STYLE_ASSIGNMENT( ( #95 ) );
#46 = ADVANCED_FACE( '', ( #96, #97 ), #98, .F. );
#47 = PRESENTATION_STYLE_ASSIGNMENT( ( #99 ) );
#48 = ADVANCED_FACE( '', ( #100 ), #101, .T. );
#49 = PRESENTATION_STYLE_ASSIGNMENT( ( #102 ) );
#50 = ADVANCED_FACE( '', ( #103, #104 ), #105, .T. );
#51 = PRESENTATION_STYLE_ASSIGNMENT( ( #106 ) );
#52 = ADVANCED_FACE( '', ( #107, #108 ), #109, .T. );
#53 = PRESENTATION_STYLE_ASSIGNMENT( ( #110 ) );
#54 = ADVANCED_FACE( '', ( #111, #112 ), #113, .T. );
#55 = PRESENTATION_STYLE_ASSIGNMENT( ( #114 ) );
#56 = ADVANCED_FACE( '', ( #115, #116 ), #117, .T. );
#57 = PRESENTATION_STYLE_ASSIGNMENT( ( #118 ) );
#58 = ADVANCED_FACE( '', ( #119, #120 ), #121, .T. );
#59 = PRESENTATION_STYLE_ASSIGNMENT( ( #122 ) );
#60 = ADVANCED_FACE( '', ( #123, #124 ), #125, .T. );
#61 = PRESENTATION_STYLE_ASSIGNMENT( ( #126 ) );
#62 = ADVANCED_FACE( '', ( #127 ), #128, .F. );
#63 = PRESENTATION_STYLE_ASSIGNMENT( ( #129 ) );
#64 = ADVANCED_FACE( '', ( #130 ), #131, .T. );
#65 = PRODUCT( '1', '1', 'PART-1-DESC', ( #132 ) );
#66 = PRODUCT_DEFINITION( 'NONE', 'NONE', #133, #2 );
#67 = MANIFOLD_SOLID_BREP( '1', #134 );
#68 = AXIS2_PLACEMENT_3D( '', #135, #136, #137 );
#71 = LENGTH_MEASURE_WITH_UNIT( LENGTH_MEASURE( 1.00000000000000 ), #138 );
#74 = DIMENSIONAL_EXPONENTS( 1.00000000000000, 0.000000000000000, 0.000000000000000, 0.000000000000000, 0.000000000000000, 0.000000000000000, 0.000000000000000 );
#76 = DIMENSIONAL_EXPONENTS( 0.000000000000000, 0.000000000000000, 0.000000000000000, 0.000000000000000, 0.000000000000000, 0.000000000000000, 0.000000000000000 );
#82 = SURFACE_STYLE_USAGE( .BOTH., #139 );
#83 = FACE_OUTER_BOUND( '', #140, .T. );
#84 = PLANE( '', #141 );
#85 = SURFACE_STYLE_USAGE( .BOTH., #142 );
#86 = FACE_OUTER_BOUND( '', #143, .T. );
#87 = PLANE( '', #144 );
#88 = SURFACE_STYLE_USAGE( .BOTH., #145 );
#89 = FACE_BOUND( '', #146, .T. );
#90 = FACE_OUTER_BOUND( '', #147, .T. );
#91 = CONICAL_SURFACE( '', #148, 4.00000000000000, 0.785398163397448 );
#92 = SURFACE_STYLE_USAGE( .BOTH., #149 );
#93 = FACE_OUTER_BOUND( '', #150, .T. );
#94 = PLANE( '', #151 );
#95 = SURFACE_STYLE_USAGE( .BOTH., #152 );
#96 = FACE_BOUND( '', #153, .T. );
#97 = FACE_OUTER_BOUND( '', #154, .T. );
#98 = PLANE( '', #155 );
#99 = SURFACE_STYLE_USAGE( .BOTH., #156 );
#100 = FACE_OUTER_BOUND( '', #157, .T. );
#101 = PLANE( '', #158 );
#102 = SURFACE_STYLE_USAGE( .BOTH., #159 );
#103 = FACE_OUTER_BOUND( '', #160, .T. );
#104 = FACE_OUTER_BOUND( '', #161, .T. );
#105 = CYLINDRICAL_SURFACE( '', #162, 4.00000000000000 );
#106 = SURFACE_STYLE_USAGE( .BOTH., #163 );
#107 = FACE_OUTER_BOUND( '', #164, .T. );
#108 = FACE_OUTER_BOUND( '', #165, .T. );
#109 = SPHERICAL_SURFACE( '', #166, 7.50000000000000 );
#110 = SURFACE_STYLE_USAGE( .BOTH., #167 );
#111 = FACE_BOUND( '', #168, .T. );
#112 = FACE_OUTER_BOUND( '', #169, .T. );
#113 = PLANE( '', #170 );
#114 = SURFACE_STYLE_USAGE( .BOTH., #171 );
#115 = FACE_BOUND( '', #172, .T. );
#116 = FACE_OUTER_BOUND( '', #173, .T. );
#117 = CONICAL_SURFACE( '', #174, 8.10201703083385, 0.279252680319095 );
#118 = SURFACE_STYLE_USAGE( .BOTH., #175 );
#119 = FACE_OUTER_BOUND( '', #176, .T. );
#120 = FACE_OUTER_BOUND( '', #177, .T. );
#121 = CYLINDRICAL_SURFACE( '', #178, 10.0000000000000 );
#122 = SURFACE_STYLE_USAGE( .BOTH., #179 );
#123 = FACE_BOUND( '', #180, .T. );
#124 = FACE_OUTER_BOUND( '', #181, .T. );
#125 = CONICAL_SURFACE( '', #182, 10.0000000000000, 0.785393676856282 );
#126 = SURFACE_STYLE_USAGE( .BOTH., #183 );
#127 = FACE_OUTER_BOUND( '', #184, .T. );
#128 = PLANE( '', #185 );
#129 = SURFACE_STYLE_USAGE( .BOTH., #186 );
#130 = FACE_OUTER_BOUND( '', #187, .T. );
#131 = PLANE( '', #188 );
#132 = PRODUCT_CONTEXT( '', #24, 'mechanical' );
#133 = PRODUCT_DEFINITION_FORMATION_WITH_SPECIFIED_SOURCE( ' ', 'NONE', #65, .NOT_KNOWN. );
#134 = CLOSED_SHELL( '', ( #52, #64, #58, #46, #54, #60, #56, #50, #62, #40, #38, #44, #48, #42 ) );
#135 = CARTESIAN_POINT( '', ( 0.000000000000000, 0.000000000000000, 0.000000000000000 ) );
#136 = DIRECTION( '', ( 0.000000000000000, 0.000000000000000, 1.00000000000000 ) );
#137 = DIRECTION( '', ( 1.00000000000000, 0.000000000000000, 0.000000000000000 ) );
#138 =  ( LENGTH_UNIT(  )NAMED_UNIT( #74 )SI_UNIT( .MILLI., .METRE. ) );
#139 = SURFACE_SIDE_STYLE( '', ( #190 ) );
#140 = EDGE_LOOP( '', ( #191, #192 ) );
#141 = AXIS2_PLACEMENT_3D( '', #193, #194, #195 );
#142 = SURFACE_SIDE_STYLE( '', ( #196 ) );
#143 = EDGE_LOOP( '', ( #197, #198, #199, #200 ) );
#144 = AXIS2_PLACEMENT_3D( '', #201, #202, #203 );
#145 = SURFACE_SIDE_STYLE( '', ( #204 ) );
#146 = EDGE_LOOP( '', ( #205 ) );
#147 = EDGE_LOOP( '', ( #206 ) );
#148 = AXIS2_PLACEMENT_3D( '', #207, #208, #209 );
#149 = SURFACE_SIDE_STYLE( '', ( #210 ) );
#150 = EDGE_LOOP( '', ( #211, #212, #213, #214 ) );
#151 = AXIS2_PLACEMENT_3D( '', #215, #216, #217 );
#152 = SURFACE_SIDE_STYLE( '', ( #218 ) );
#153 = EDGE_LOOP( '', ( #219 ) );
#154 = EDGE_LOOP( '', ( #220, #221, #222, #223 ) );
#155 = AXIS2_PLACEMENT_3D( '', #224, #225, #226 );
#156 = SURFACE_SIDE_STYLE( '', ( #227 ) );
#157 = EDGE_LOOP( '', ( #228, #229 ) );
#158 = AXIS2_PLACEMENT_3D( '', #230, #231, #232 );
#159 = SURFACE_SIDE_STYLE( '', ( #233 ) );
#160 = EDGE_LOOP( '', ( #234 ) );
#161 = EDGE_LOOP( '', ( #235 ) );
#162 = AXIS2_PLACEMENT_3D( '', #236, #237, #238 );
#163 = SURFACE_SIDE_STYLE( '', ( #239 ) );
#164 = EDGE_LOOP( '', ( #240 ) );
#165 = EDGE_LOOP( '', ( #241 ) );
#166 = AXIS2_PLACEMENT_3D( '', #242, #243, #244 );
#167 = SURFACE_SIDE_STYLE( '', ( #245 ) );
#168 = EDGE_LOOP( '', ( #246 ) );
#169 = EDGE_LOOP( '', ( #247 ) );
#170 = AXIS2_PLACEMENT_3D( '', #248, #249, #250 );
#171 = SURFACE_SIDE_STYLE( '', ( #251 ) );
#172 = EDGE_LOOP( '', ( #252 ) );
#173 = EDGE_LOOP( '', ( #253 ) );
#174 = AXIS2_PLACEMENT_3D( '', #254, #255, #256 );
#175 = SURFACE_SIDE_STYLE( '', ( #257 ) );
#176 = EDGE_LOOP( '', ( #258 ) );
#177 = EDGE_LOOP( '', ( #259, #260, #261, #262, #263, #264, #265, #266 ) );
#178 = AXIS2_PLACEMENT_3D( '', #267, #268, #269 );
#179 = SURFACE_SIDE_STYLE( '', ( #270 ) );
#180 = EDGE_LOOP( '', ( #271 ) );
#181 = EDGE_LOOP( '', ( #272 ) );
#182 = AXIS2_PLACEMENT_3D( '', #273, #274, #275 );
#183 = SURFACE_SIDE_STYLE( '', ( #276 ) );
#184 = EDGE_LOOP( '', ( #277 ) );
#185 = AXIS2_PLACEMENT_3D( '', #278, #279, #280 );
#186 = SURFACE_SIDE_STYLE( '', ( #281 ) );
#187 = EDGE_LOOP( '', ( #282 ) );
#188 = AXIS2_PLACEMENT_3D( '', #283, #284, #285 );
#190 = SURFACE_STYLE_FILL_AREA( #286 );
#191 = ORIENTED_EDGE( '', *, *, #287, .T. );
#192 = ORIENTED_EDGE( '', *, *, #288, .T. );
#193 = CARTESIAN_POINT( '', ( 10.0000000000000, -10.0000000000000, 7.80000000000000 ) );
#194 = DIRECTION( '', ( 0.000000000000000, 0.000000000000000, -1.00000000000000 ) );
#195 = DIRECTION( '', ( -1.00000000000000, 0.000000000000000, 0.000000000000000 ) );
#196 = SURFACE_STYLE_FILL_AREA( #289 );
#197 = ORIENTED_EDGE( '', *, *, #290, .T. );
#198 = ORIENTED_EDGE( '', *, *, #291, .T. );
#199 = ORIENTED_EDGE( '', *, *, #292, .T. );
#200 = ORIENTED_EDGE( '', *, *, #287, .F. );
#201 = CARTESIAN_POINT( '', ( 8.50000000000000, -10.0000000000000, 7.80000000000000 ) );
#202 = DIRECTION( '', ( 1.00000000000000, 0.000000000000000, 2.22400445638052E-016 ) );
#203 = DIRECTION( '', ( 2.22400445638052E-016, 0.000000000000000, -1.00000000000000 ) );
#204 = SURFACE_STYLE_FILL_AREA( #293 );
#205 = ORIENTED_EDGE( '', *, *, #294, .F. );
#206 = ORIENTED_EDGE( '', *, *, #295, .F. );
#207 = CARTESIAN_POINT( '', ( 0.000000000000000, 0.000000000000000, -8.80000000000000 ) );
#208 = DIRECTION( '', ( -0.000000000000000, -0.000000000000000, 1.00000000000000 ) );
#209 = DIRECTION( '', ( 1.00000000000000, 0.000000000000000, 0.000000000000000 ) );
#210 = SURFACE_STYLE_FILL_AREA( #296 );
#211 = ORIENTED_EDGE( '', *, *, #297, .T. );
#212 = ORIENTED_EDGE( '', *, *, #298, .F. );
#213 = ORIENTED_EDGE( '', *, *, #299, .T. );
#214 = ORIENTED_EDGE( '', *, *, #300, .T. );
#215 = CARTESIAN_POINT( '', ( -8.50000000000000, -10.0000000000000, 0.000000000000000 ) );
#216 = DIRECTION( '', ( -1.00000000000000, 0.000000000000000, 0.000000000000000 ) );
#217 = DIRECTION( '', ( 0.000000000000000, 0.000000000000000, 1.00000000000000 ) );
#218 = SURFACE_STYLE_FILL_AREA( #301 );
#219 = ORIENTED_EDGE( '', *, *, #302, .T. );
#220 = ORIENTED_EDGE( '', *, *, #298, .T. );
#221 = ORIENTED_EDGE( '', *, *, #303, .F. );
#222 = ORIENTED_EDGE( '', *, *, #291, .F. );
#223 = ORIENTED_EDGE( '', *, *, #304, .F. );
#224 = CARTESIAN_POINT( '', ( 6.93889390390723E-015, 0.000000000000000, 0.000000000000000 ) );
#225 = DIRECTION( '', ( 0.000000000000000, 0.000000000000000, 1.00000000000000 ) );
#226 = DIRECTION( '', ( 1.00000000000000, 0.000000000000000, 0.000000000000000 ) );
#227 = SURFACE_STYLE_FILL_AREA( #305 );
#228 = ORIENTED_EDGE( '', *, *, #306, .T. );
#229 = ORIENTED_EDGE( '', *, *, #300, .F. );
#230 = CARTESIAN_POINT( '', ( -8.50000000000000, -10.0000000000000, 7.80000000000000 ) );
#231 = DIRECTION( '', ( 0.000000000000000, 0.000000000000000, -1.00000000000000 ) );
#232 = DIRECTION( '', ( -1.00000000000000, 0.000000000000000, 0.000000000000000 ) );
#233 = SURFACE_STYLE_FILL_AREA( #307 );
#234 = ORIENTED_EDGE( '', *, *, #295, .T. );
#235 = ORIENTED_EDGE( '', *, *, #302, .F. );
#236 = CARTESIAN_POINT( '', ( 0.000000000000000, 0.000000000000000, -10.0000000000000 ) );
#237 = DIRECTION( '', ( -0.000000000000000, -0.000000000000000, -1.00000000000000 ) );
#238 = DIRECTION( '', ( 1.00000000000000, 0.000000000000000, 0.000000000000000 ) );
#239 = SURFACE_STYLE_FILL_AREA( #308 );
#240 = ORIENTED_EDGE( '', *, *, #309, .T. );
#241 = ORIENTED_EDGE( '', *, *, #310, .F. );
#242 = CARTESIAN_POINT( '', ( 5.08228421646152E-015, 0.000000000000000, 12.5000000000000 ) );
#243 = DIRECTION( '', ( 0.000000000000000, 0.000000000000000, 1.00000000000000 ) );
#244 = DIRECTION( '', ( 1.00000000000000, 0.000000000000000, 0.000000000000000 ) );
#245 = SURFACE_STYLE_FILL_AREA( #311 );
#246 = ORIENTED_EDGE( '', *, *, #309, .F. );
#247 = ORIENTED_EDGE( '', *, *, #312, .F. );
#248 = CARTESIAN_POINT( '', ( 6.93889390390723E-015, 0.000000000000000, 15.7000000000000 ) );
#249 = DIRECTION( '', ( 0.000000000000000, 0.000000000000000, 1.00000000000000 ) );
#250 = DIRECTION( '', ( 1.00000000000000, 0.000000000000000, 0.000000000000000 ) );
#251 = SURFACE_STYLE_FILL_AREA( #313 );
#252 = ORIENTED_EDGE( '', *, *, #312, .T. );
#253 = ORIENTED_EDGE( '', *, *, #314, .F. );
#254 = CARTESIAN_POINT( '', ( 0.000000000000000, 0.000000000000000, 14.2980000000000 ) );
#255 = DIRECTION( '', ( -0.000000000000000, 0.000000000000000, -1.00000000000000 ) );
#256 = DIRECTION( '', ( -1.00000000000000, 0.000000000000000, 0.000000000000000 ) );
#257 = SURFACE_STYLE_FILL_AREA( #315 );
#258 = ORIENTED_EDGE( '', *, *, #316, .T. );
#259 = ORIENTED_EDGE( '', *, *, #297, .F. );
#260 = ORIENTED_EDGE( '', *, *, #306, .F. );
#261 = ORIENTED_EDGE( '', *, *, #299, .F. );
#262 = ORIENTED_EDGE( '', *, *, #304, .T. );
#263 = ORIENTED_EDGE( '', *, *, #290, .F. );
#264 = ORIENTED_EDGE( '', *, *, #288, .F. );
#265 = ORIENTED_EDGE( '', *, *, #292, .F. );
#266 = ORIENTED_EDGE( '', *, *, #303, .T. );
#267 = CARTESIAN_POINT( '', ( 6.93889390390723E-015, 0.000000000000000, 15.7000000000000 ) );
#268 = DIRECTION( '', ( -0.000000000000000, -0.000000000000000, 1.00000000000000 ) );
#269 = DIRECTION( '', ( -1.00000000000000, 0.000000000000000, 0.000000000000000 ) );
#270 = SURFACE_STYLE_FILL_AREA( #317 );
#271 = ORIENTED_EDGE( '', *, *, #314, .T. );
#272 = ORIENTED_EDGE( '', *, *, #316, .F. );
#273 = CARTESIAN_POINT( '', ( 0.000000000000000, 0.000000000000000, 12.4000000000000 ) );
#274 = DIRECTION( '', ( -0.000000000000000, 0.000000000000000, -1.00000000000000 ) );
#275 = DIRECTION( '', ( -1.00000000000000, 0.000000000000000, 0.000000000000000 ) );
#276 = SURFACE_STYLE_FILL_AREA( #318 );
#277 = ORIENTED_EDGE( '', *, *, #294, .T. );
#278 = CARTESIAN_POINT( '', ( 0.000000000000000, 0.000000000000000, -10.0000000000000 ) );
#279 = DIRECTION( '', ( 0.000000000000000, 0.000000000000000, 1.00000000000000 ) );
#280 = DIRECTION( '', ( 1.00000000000000, 0.000000000000000, 0.000000000000000 ) );
#281 = SURFACE_STYLE_FILL_AREA( #319 );
#282 = ORIENTED_EDGE( '', *, *, #310, .T. );
#283 = CARTESIAN_POINT( '', ( 0.000000000000000, 0.000000000000000, 18.0000000000000 ) );
#284 = DIRECTION( '', ( 0.000000000000000, 0.000000000000000, 1.00000000000000 ) );
#285 = DIRECTION( '', ( 1.00000000000000, 0.000000000000000, 0.000000000000000 ) );
#286 = FILL_AREA_STYLE( '', ( #320 ) );
#287 = EDGE_CURVE( '', #321, #322, #323, .T. );
#288 = EDGE_CURVE( '', #322, #321, #324, .T. );
#289 = FILL_AREA_STYLE( '', ( #325 ) );
#290 = EDGE_CURVE( '', #321, #326, #327, .T. );
#291 = EDGE_CURVE( '', #326, #328, #329, .T. );
#292 = EDGE_CURVE( '', #328, #322, #330, .F. );
#293 = FILL_AREA_STYLE( '', ( #331 ) );
#294 = EDGE_CURVE( '', #332, #332, #333, .F. );
#295 = EDGE_CURVE( '', #334, #334, #335, .T. );
#296 = FILL_AREA_STYLE( '', ( #336 ) );
#297 = EDGE_CURVE( '', #337, #338, #339, .T. );
#298 = EDGE_CURVE( '', #340, #338, #341, .T. );
#299 = EDGE_CURVE( '', #340, #342, #343, .F. );
#300 = EDGE_CURVE( '', #342, #337, #344, .T. );
#301 = FILL_AREA_STYLE( '', ( #345 ) );
#302 = EDGE_CURVE( '', #346, #346, #347, .T. );
#303 = EDGE_CURVE( '', #328, #338, #348, .T. );
#304 = EDGE_CURVE( '', #340, #326, #349, .T. );
#305 = FILL_AREA_STYLE( '', ( #350 ) );
#306 = EDGE_CURVE( '', #342, #337, #351, .T. );
#307 = FILL_AREA_STYLE( '', ( #352 ) );
#308 = FILL_AREA_STYLE( '', ( #353 ) );
#309 = EDGE_CURVE( '', #354, #354, #355, .T. );
#310 = EDGE_CURVE( '', #356, #356, #357, .T. );
#311 = FILL_AREA_STYLE( '', ( #358 ) );
#312 = EDGE_CURVE( '', #359, #359, #360, .T. );
#313 = FILL_AREA_STYLE( '', ( #361 ) );
#314 = EDGE_CURVE( '', #362, #362, #363, .T. );
#315 = FILL_AREA_STYLE( '', ( #364 ) );
#316 = EDGE_CURVE( '', #365, #365, #366, .T. );
#317 = FILL_AREA_STYLE( '', ( #367 ) );
#318 = FILL_AREA_STYLE( '', ( #368 ) );
#319 = FILL_AREA_STYLE( '', ( #369 ) );
#320 = FILL_AREA_STYLE_COLOUR( '', #370 );
#321 = VERTEX_POINT( '', #371 );
#322 = VERTEX_POINT( '', #372 );
#323 = LINE( '', #373, #374 );
#324 = CIRCLE( '', #375, 10.0000000000000 );
#325 = FILL_AREA_STYLE_COLOUR( '', #376 );
#326 = VERTEX_POINT( '', #377 );
#327 = LINE( '', #378, #379 );
#328 = VERTEX_POINT( '', #380 );
#329 = LINE( '', #381, #382 );
#330 = LINE( '', #383, #384 );
#331 = FILL_AREA_STYLE_COLOUR( '', #385 );
#332 = VERTEX_POINT( '', #386 );
#333 = CIRCLE( '', #387, 2.80000000000000 );
#334 = VERTEX_POINT( '', #388 );
#335 = CIRCLE( '', #389, 4.00000000000000 );
#336 = FILL_AREA_STYLE_COLOUR( '', #390 );
#337 = VERTEX_POINT( '', #391 );
#338 = VERTEX_POINT( '', #392 );
#339 = LINE( '', #393, #394 );
#340 = VERTEX_POINT( '', #395 );
#341 = LINE( '', #396, #397 );
#342 = VERTEX_POINT( '', #398 );
#343 = LINE( '', #399, #400 );
#344 = LINE( '', #401, #402 );
#345 = FILL_AREA_STYLE_COLOUR( '', #403 );
#346 = VERTEX_POINT( '', #404 );
#347 = CIRCLE( '', #405, 4.00000000000000 );
#348 = CIRCLE( '', #406, 10.0000000000000 );
#349 = CIRCLE( '', #407, 10.0000000000000 );
#350 = FILL_AREA_STYLE_COLOUR( '', #408 );
#351 = CIRCLE( '', #409, 10.0000000000000 );
#352 = FILL_AREA_STYLE_COLOUR( '', #410 );
#353 = FILL_AREA_STYLE_COLOUR( '', #411 );
#354 = VERTEX_POINT( '', #412 );
#355 = CIRCLE( '', #413, 6.78306715284464 );
#356 = VERTEX_POINT( '', #414 );
#357 = CIRCLE( '', #415, 5.09901951359279 );
#358 = FILL_AREA_STYLE_COLOUR( '', #416 );
#359 = VERTEX_POINT( '', #417 );
#360 = CIRCLE( '', #418, 7.70000000000000 );
#361 = FILL_AREA_STYLE_COLOUR( '', #419 );
#362 = VERTEX_POINT( '', #420 );
#363 = CIRCLE( '', #421, 8.10201703083385 );
#364 = FILL_AREA_STYLE_COLOUR( '', #422 );
#365 = VERTEX_POINT( '', #423 );
#366 = CIRCLE( '', #424, 10.0000000000000 );
#367 = FILL_AREA_STYLE_COLOUR( '', #425 );
#368 = FILL_AREA_STYLE_COLOUR( '', #426 );
#369 = FILL_AREA_STYLE_COLOUR( '', #427 );
#370 = COLOUR_RGB( '', 0.200000002980232, 0.200000002980232, 0.200000002980232 );
#371 = CARTESIAN_POINT( '', ( 8.50000000000000, -5.26782687642638, 7.80000000000000 ) );
#372 = CARTESIAN_POINT( '', ( 8.50000000000000, 5.26782687642638, 7.80000000000000 ) );
#373 = CARTESIAN_POINT( '', ( 8.50000000000000, -10.0000000000000, 7.80000000000000 ) );
#374 = VECTOR( '', #428, 1000.00000000000 );
#375 = AXIS2_PLACEMENT_3D( '', #429, #430, #431 );
#376 = COLOUR_RGB( '', 0.200000002980232, 0.200000002980232, 0.200000002980232 );
#377 = CARTESIAN_POINT( '', ( 8.50000000000000, -5.26782687642638, 0.000000000000000 ) );
#378 = CARTESIAN_POINT( '', ( 8.50000000000000, -5.26782687642638, 15.7000000000000 ) );
#379 = VECTOR( '', #432, 1000.00000000000 );
#380 = CARTESIAN_POINT( '', ( 8.50000000000000, 5.26782687642638, 0.000000000000000 ) );
#381 = CARTESIAN_POINT( '', ( 8.50000000000000, -10.0000000000000, 0.000000000000000 ) );
#382 = VECTOR( '', #433, 1000.00000000000 );
#383 = CARTESIAN_POINT( '', ( 8.50000000000000, 5.26782687642638, 15.7000000000000 ) );
#384 = VECTOR( '', #434, 1000.00000000000 );
#385 = COLOUR_RGB( '', 0.200000002980232, 0.200000002980232, 0.200000002980232 );
#386 = CARTESIAN_POINT( '', ( 2.80000000000000, 0.000000000000000, -10.0000000000000 ) );
#387 = AXIS2_PLACEMENT_3D( '', #435, #436, #437 );
#388 = CARTESIAN_POINT( '', ( 4.00000000000000, 0.000000000000000, -8.80000000000000 ) );
#389 = AXIS2_PLACEMENT_3D( '', #438, #439, #440 );
#390 = COLOUR_RGB( '', 0.200000002980232, 0.200000002980232, 0.200000002980232 );
#391 = CARTESIAN_POINT( '', ( -8.50000000000000, 5.26782687642636, 7.80000000000000 ) );
#392 = CARTESIAN_POINT( '', ( -8.50000000000000, 5.26782687642636, 0.000000000000000 ) );
#393 = CARTESIAN_POINT( '', ( -8.50000000000000, 5.26782687642636, 15.7000000000000 ) );
#394 = VECTOR( '', #441, 1000.00000000000 );
#395 = CARTESIAN_POINT( '', ( -8.50000000000000, -5.26782687642636, 0.000000000000000 ) );
#396 = CARTESIAN_POINT( '', ( -8.50000000000000, -10.0000000000000, 0.000000000000000 ) );
#397 = VECTOR( '', #442, 1000.00000000000 );
#398 = CARTESIAN_POINT( '', ( -8.50000000000000, -5.26782687642636, 7.80000000000000 ) );
#399 = CARTESIAN_POINT( '', ( -8.50000000000000, -5.26782687642636, 15.7000000000000 ) );
#400 = VECTOR( '', #443, 1000.00000000000 );
#401 = CARTESIAN_POINT( '', ( -8.50000000000000, -10.0000000000000, 7.80000000000000 ) );
#402 = VECTOR( '', #444, 1000.00000000000 );
#403 = COLOUR_RGB( '', 0.200000002980232, 0.200000002980232, 0.200000002980232 );
#404 = CARTESIAN_POINT( '', ( 4.00000000000000, 0.000000000000000, 0.000000000000000 ) );
#405 = AXIS2_PLACEMENT_3D( '', #445, #446, #447 );
#406 = AXIS2_PLACEMENT_3D( '', #448, #449, #450 );
#407 = AXIS2_PLACEMENT_3D( '', #451, #452, #453 );
#408 = COLOUR_RGB( '', 0.200000002980232, 0.200000002980232, 0.200000002980232 );
#409 = AXIS2_PLACEMENT_3D( '', #454, #455, #456 );
#410 = COLOUR_RGB( '', 0.200000002980232, 0.200000002980232, 0.200000002980232 );
#411 = COLOUR_RGB( '', 1.00000000000000, 1.00000000000000, 1.00000000000000 );
#412 = CARTESIAN_POINT( '', ( 6.78306715284465, 0.000000000000000, 15.7000000000000 ) );
#413 = AXIS2_PLACEMENT_3D( '', #457, #458, #459 );
#414 = CARTESIAN_POINT( '', ( 5.09901951359279, 0.000000000000000, 18.0000000000000 ) );
#415 = AXIS2_PLACEMENT_3D( '', #460, #461, #462 );
#416 = COLOUR_RGB( '', 0.200000002980232, 0.200000002980232, 0.200000002980232 );
#417 = CARTESIAN_POINT( '', ( -7.70000000000000, 0.000000000000000, 15.7000000000000 ) );
#418 = AXIS2_PLACEMENT_3D( '', #463, #464, #465 );
#419 = COLOUR_RGB( '', 0.200000002980232, 0.200000002980232, 0.200000002980232 );
#420 = CARTESIAN_POINT( '', ( -8.10201703083385, 0.000000000000000, 14.2980000000000 ) );
#421 = AXIS2_PLACEMENT_3D( '', #466, #467, #468 );
#422 = COLOUR_RGB( '', 0.200000002980232, 0.200000002980232, 0.200000002980232 );
#423 = CARTESIAN_POINT( '', ( -10.0000000000000, 0.000000000000000, 12.4000000000000 ) );
#424 = AXIS2_PLACEMENT_3D( '', #469, #470, #471 );
#425 = COLOUR_RGB( '', 0.200000002980232, 0.200000002980232, 0.200000002980232 );
#426 = COLOUR_RGB( '', 0.200000002980232, 0.200000002980232, 0.200000002980232 );
#427 = COLOUR_RGB( '', 1.00000000000000, 1.00000000000000, 1.00000000000000 );
#428 = DIRECTION( '', ( 0.000000000000000, 1.00000000000000, 0.000000000000000 ) );
#429 = CARTESIAN_POINT( '', ( 6.93889390390723E-015, 0.000000000000000, 7.80000000000000 ) );
#430 = DIRECTION( '', ( 0.000000000000000, 0.000000000000000, -1.00000000000000 ) );
#431 = DIRECTION( '', ( -1.00000000000000, 0.000000000000000, 0.000000000000000 ) );
#432 = DIRECTION( '', ( 0.000000000000000, 0.000000000000000, -1.00000000000000 ) );
#433 = DIRECTION( '', ( 0.000000000000000, 1.00000000000000, 0.000000000000000 ) );
#434 = DIRECTION( '', ( 0.000000000000000, 0.000000000000000, -1.00000000000000 ) );
#435 = CARTESIAN_POINT( '', ( 0.000000000000000, 0.000000000000000, -10.0000000000000 ) );
#436 = DIRECTION( '', ( 0.000000000000000, 0.000000000000000, 1.00000000000000 ) );
#437 = DIRECTION( '', ( 1.00000000000000, 0.000000000000000, 0.000000000000000 ) );
#438 = CARTESIAN_POINT( '', ( 0.000000000000000, 0.000000000000000, -8.80000000000000 ) );
#439 = DIRECTION( '', ( 0.000000000000000, 0.000000000000000, 1.00000000000000 ) );
#440 = DIRECTION( '', ( 1.00000000000000, 0.000000000000000, 0.000000000000000 ) );
#441 = DIRECTION( '', ( 0.000000000000000, 0.000000000000000, -1.00000000000000 ) );
#442 = DIRECTION( '', ( 0.000000000000000, 1.00000000000000, 0.000000000000000 ) );
#443 = DIRECTION( '', ( 0.000000000000000, 0.000000000000000, -1.00000000000000 ) );
#444 = DIRECTION( '', ( 0.000000000000000, 1.00000000000000, 0.000000000000000 ) );
#445 = CARTESIAN_POINT( '', ( 0.000000000000000, 0.000000000000000, 0.000000000000000 ) );
#446 = DIRECTION( '', ( 0.000000000000000, 0.000000000000000, 1.00000000000000 ) );
#447 = DIRECTION( '', ( 1.00000000000000, 0.000000000000000, 0.000000000000000 ) );
#448 = CARTESIAN_POINT( '', ( 6.93889390390723E-015, 0.000000000000000, 0.000000000000000 ) );
#449 = DIRECTION( '', ( 0.000000000000000, 0.000000000000000, 1.00000000000000 ) );
#450 = DIRECTION( '', ( 1.00000000000000, 0.000000000000000, 0.000000000000000 ) );
#451 = CARTESIAN_POINT( '', ( 6.93889390390723E-015, 0.000000000000000, 0.000000000000000 ) );
#452 = DIRECTION( '', ( 0.000000000000000, 0.000000000000000, 1.00000000000000 ) );
#453 = DIRECTION( '', ( 1.00000000000000, 0.000000000000000, 0.000000000000000 ) );
#454 = CARTESIAN_POINT( '', ( 6.93889390390723E-015, 0.000000000000000, 7.80000000000000 ) );
#455 = DIRECTION( '', ( 0.000000000000000, 0.000000000000000, -1.00000000000000 ) );
#456 = DIRECTION( '', ( -1.00000000000000, 0.000000000000000, 0.000000000000000 ) );
#457 = CARTESIAN_POINT( '', ( 5.08228421646152E-015, 0.000000000000000, 15.7000000000000 ) );
#458 = DIRECTION( '', ( 0.000000000000000, 0.000000000000000, 1.00000000000000 ) );
#459 = DIRECTION( '', ( 1.00000000000000, 0.000000000000000, 0.000000000000000 ) );
#460 = CARTESIAN_POINT( '', ( 0.000000000000000, 0.000000000000000, 18.0000000000000 ) );
#461 = DIRECTION( '', ( 0.000000000000000, 0.000000000000000, 1.00000000000000 ) );
#462 = DIRECTION( '', ( 1.00000000000000, 0.000000000000000, 0.000000000000000 ) );
#463 = CARTESIAN_POINT( '', ( 0.000000000000000, 0.000000000000000, 15.7000000000000 ) );
#464 = DIRECTION( '', ( 0.000000000000000, 0.000000000000000, -1.00000000000000 ) );
#465 = DIRECTION( '', ( -1.00000000000000, 0.000000000000000, 0.000000000000000 ) );
#466 = CARTESIAN_POINT( '', ( 0.000000000000000, 0.000000000000000, 14.2980000000000 ) );
#467 = DIRECTION( '', ( 0.000000000000000, 0.000000000000000, -1.00000000000000 ) );
#468 = DIRECTION( '', ( -1.00000000000000, 0.000000000000000, 0.000000000000000 ) );
#469 = CARTESIAN_POINT( '', ( 0.000000000000000, 0.000000000000000, 12.4000000000000 ) );
#470 = DIRECTION( '', ( 0.000000000000000, 0.000000000000000, -1.00000000000000 ) );
#471 = DIRECTION( '', ( -1.00000000000000, 0.000000000000000, 0.000000000000000 ) );
ENDSEC;
END-ISO-10303-21;
