ISO-10303-21;
HEADER;
FILE_DESCRIPTION( ( 'Unknown' ), '1' );
FILE_NAME( 'S:/LEAVE 2D&3D CAD/LEAVE 3D-STEP/Metric/PT-3D/PT50-3D/PT50-1018.stp', 'Unknown', ( 'Unknown' ), ( 'Unknown' ), 'PSStep 16.0.42', 'Unknown', '  ' );
FILE_SCHEMA( ( 'AUTOMOTIVE_DESIGN { 1 0 10303 214 1 1 1 1 }' ) );
ENDSEC;
DATA;
#1 = MECHANICAL_DESIGN_GEOMETRIC_PRESENTATION_REPRESENTATION( ' ', ( #10, #11, #12, #13, #14, #15, #16, #17, #18, #19, #20, #21, #22, #23 ), #6 );
#2 = PRODUCT_DEFINITION_CONTEXT( '', #24, 'design' );
#3 = APPLICATION_PROTOCOL_DEFINITION( 'international standard', 'automotive_design', 2001, #24 );
#4 = PRODUCT_CATEGORY_RELATIONSHIP( 'NONE', 'NONE', #25, #26 );
#5 = SHAPE_DEFINITION_REPRESENTATION( #27, #28 );
#6 =  ( GEOMETRIC_REPRESENTATION_CONTEXT( 3 )GLOBAL_UNCERTAINTY_ASSIGNED_CONTEXT( ( #31 ) )GLOBAL_UNIT_ASSIGNED_CONTEXT( ( #33, #34, #35 ) )REPRESENTATION_CONTEXT( 'NONE', 'WORKSPACE' ) );
#10 = STYLED_ITEM( '', ( #37 ), #38 );
#11 = STYLED_ITEM( '', ( #39 ), #40 );
#12 = STYLED_ITEM( '', ( #41 ), #42 );
#13 = STYLED_ITEM( '', ( #43 ), #44 );
#14 = STYLED_ITEM( '', ( #45 ), #46 );
#15 = STYLED_ITEM( '', ( #47 ), #48 );
#16 = STYLED_ITEM( '', ( #49 ), #50 );
#17 = STYLED_ITEM( '', ( #51 ), #52 );
#18 = STYLED_ITEM( '', ( #53 ), #54 );
#19 = STYLED_ITEM( '', ( #55 ), #56 );
#20 = STYLED_ITEM( '', ( #57 ), #58 );
#21 = STYLED_ITEM( '', ( #59 ), #60 );
#22 = STYLED_ITEM( '', ( #61 ), #62 );
#23 = STYLED_ITEM( '', ( #63 ), #64 );
#24 = APPLICATION_CONTEXT( 'core data for automotive mechanical design processes' );
#25 = PRODUCT_CATEGORY( 'part', 'NONE' );
#26 = PRODUCT_RELATED_PRODUCT_CATEGORY( 'detail', ' ', ( #65 ) );
#27 = PRODUCT_DEFINITION_SHAPE( 'NONE', 'NONE', #66 );
#28 = ADVANCED_BREP_SHAPE_REPRESENTATION( '1', ( #67, #68 ), #6 );
#31 = UNCERTAINTY_MEASURE_WITH_UNIT( LENGTH_MEASURE( 0.00100000000000000 ), #33, '', '' );
#33 =  ( CONVERSION_BASED_UNIT( 'MILLIMETRE', #71 )LENGTH_UNIT(  )NAMED_UNIT( #74 ) );
#34 =  ( NAMED_UNIT( #76 )PLANE_ANGLE_UNIT(  )SI_UNIT( $, .RADIAN. ) );
#35 =  ( NAMED_UNIT( #76 )SI_UNIT( $, .STERADIAN. )SOLID_ANGLE_UNIT(  ) );
#37 = PRESENTATION_STYLE_ASSIGNMENT( ( #82 ) );
#38 = ADVANCED_FACE( '', ( #83, #84 ), #85, .T. );
#39 = PRESENTATION_STYLE_ASSIGNMENT( ( #86 ) );
#40 = ADVANCED_FACE( '', ( #87, #88 ), #89, .T. );
#41 = PRESENTATION_STYLE_ASSIGNMENT( ( #90 ) );
#42 = ADVANCED_FACE( '', ( #91, #92 ), #93, .T. );
#43 = PRESENTATION_STYLE_ASSIGNMENT( ( #94 ) );
#44 = ADVANCED_FACE( '', ( #95 ), #96, .T. );
#45 = PRESENTATION_STYLE_ASSIGNMENT( ( #97 ) );
#46 = ADVANCED_FACE( '', ( #98, #99 ), #100, .T. );
#47 = PRESENTATION_STYLE_ASSIGNMENT( ( #101 ) );
#48 = ADVANCED_FACE( '', ( #102, #103 ), #104, .T. );
#49 = PRESENTATION_STYLE_ASSIGNMENT( ( #105 ) );
#50 = ADVANCED_FACE( '', ( #106, #107 ), #108, .F. );
#51 = PRESENTATION_STYLE_ASSIGNMENT( ( #109 ) );
#52 = ADVANCED_FACE( '', ( #110 ), #111, .T. );
#53 = PRESENTATION_STYLE_ASSIGNMENT( ( #112 ) );
#54 = ADVANCED_FACE( '', ( #113 ), #114, .T. );
#55 = PRESENTATION_STYLE_ASSIGNMENT( ( #115 ) );
#56 = ADVANCED_FACE( '', ( #116 ), #117, .F. );
#57 = PRESENTATION_STYLE_ASSIGNMENT( ( #118 ) );
#58 = ADVANCED_FACE( '', ( #119, #120 ), #121, .T. );
#59 = PRESENTATION_STYLE_ASSIGNMENT( ( #122 ) );
#60 = ADVANCED_FACE( '', ( #123, #124 ), #125, .T. );
#61 = PRESENTATION_STYLE_ASSIGNMENT( ( #126 ) );
#62 = ADVANCED_FACE( '', ( #127 ), #128, .T. );
#63 = PRESENTATION_STYLE_ASSIGNMENT( ( #129 ) );
#64 = ADVANCED_FACE( '', ( #130 ), #131, .T. );
#65 = PRODUCT( '1', '1', 'PART-1-DESC', ( #132 ) );
#66 = PRODUCT_DEFINITION( 'NONE', 'NONE', #133, #2 );
#67 = MANIFOLD_SOLID_BREP( '1', #134 );
#68 = AXIS2_PLACEMENT_3D( '', #135, #136, #137 );
#71 = LENGTH_MEASURE_WITH_UNIT( LENGTH_MEASURE( 1.00000000000000 ), #138 );
#74 = DIMENSIONAL_EXPONENTS( 1.00000000000000, 0.000000000000000, 0.000000000000000, 0.000000000000000, 0.000000000000000, 0.000000000000000, 0.000000000000000 );
#76 = DIMENSIONAL_EXPONENTS( 0.000000000000000, 0.000000000000000, 0.000000000000000, 0.000000000000000, 0.000000000000000, 0.000000000000000, 0.000000000000000 );
#82 = SURFACE_STYLE_USAGE( .BOTH., #139 );
#83 = FACE_BOUND( '', #140, .T. );
#84 = FACE_OUTER_BOUND( '', #141, .T. );
#85 = CONICAL_SURFACE( '', #142, 10.0000000000000, 0.785393676856282 );
#86 = SURFACE_STYLE_USAGE( .BOTH., #143 );
#87 = FACE_BOUND( '', #144, .T. );
#88 = FACE_OUTER_BOUND( '', #145, .T. );
#89 = PLANE( '', #146 );
#90 = SURFACE_STYLE_USAGE( .BOTH., #147 );
#91 = FACE_OUTER_BOUND( '', #148, .T. );
#92 = FACE_OUTER_BOUND( '', #149, .T. );
#93 = CYLINDRICAL_SURFACE( '', #150, 5.00000000000000 );
#94 = SURFACE_STYLE_USAGE( .BOTH., #151 );
#95 = FACE_OUTER_BOUND( '', #152, .T. );
#96 = PLANE( '', #153 );
#97 = SURFACE_STYLE_USAGE( .BOTH., #154 );
#98 = FACE_BOUND( '', #155, .T. );
#99 = FACE_OUTER_BOUND( '', #156, .T. );
#100 = CONICAL_SURFACE( '', #157, 8.10201703083385, 0.279252680319095 );
#101 = SURFACE_STYLE_USAGE( .BOTH., #158 );
#102 = FACE_OUTER_BOUND( '', #159, .T. );
#103 = FACE_OUTER_BOUND( '', #160, .T. );
#104 = SPHERICAL_SURFACE( '', #161, 7.50000000000000 );
#105 = SURFACE_STYLE_USAGE( .BOTH., #162 );
#106 = FACE_BOUND( '', #163, .T. );
#107 = FACE_OUTER_BOUND( '', #164, .T. );
#108 = PLANE( '', #165 );
#109 = SURFACE_STYLE_USAGE( .BOTH., #166 );
#110 = FACE_OUTER_BOUND( '', #167, .T. );
#111 = PLANE( '', #168 );
#112 = SURFACE_STYLE_USAGE( .BOTH., #169 );
#113 = FACE_OUTER_BOUND( '', #170, .T. );
#114 = PLANE( '', #171 );
#115 = SURFACE_STYLE_USAGE( .BOTH., #172 );
#116 = FACE_OUTER_BOUND( '', #173, .T. );
#117 = PLANE( '', #174 );
#118 = SURFACE_STYLE_USAGE( .BOTH., #175 );
#119 = FACE_BOUND( '', #176, .T. );
#120 = FACE_OUTER_BOUND( '', #177, .T. );
#121 = CONICAL_SURFACE( '', #178, 5.00000000000000, 0.785398163397449 );
#122 = SURFACE_STYLE_USAGE( .BOTH., #179 );
#123 = FACE_OUTER_BOUND( '', #180, .T. );
#124 = FACE_OUTER_BOUND( '', #181, .T. );
#125 = CYLINDRICAL_SURFACE( '', #182, 10.0000000000000 );
#126 = SURFACE_STYLE_USAGE( .BOTH., #183 );
#127 = FACE_OUTER_BOUND( '', #184, .T. );
#128 = PLANE( '', #185 );
#129 = SURFACE_STYLE_USAGE( .BOTH., #186 );
#130 = FACE_OUTER_BOUND( '', #187, .T. );
#131 = PLANE( '', #188 );
#132 = PRODUCT_CONTEXT( '', #24, 'mechanical' );
#133 = PRODUCT_DEFINITION_FORMATION_WITH_SPECIFIED_SOURCE( ' ', 'NONE', #65, .NOT_KNOWN. );
#134 = CLOSED_SHELL( '', ( #48, #64, #60, #50, #40, #38, #46, #42, #56, #44, #62, #52, #54, #58 ) );
#135 = CARTESIAN_POINT( '', ( 0.000000000000000, 0.000000000000000, 0.000000000000000 ) );
#136 = DIRECTION( '', ( 0.000000000000000, 0.000000000000000, 1.00000000000000 ) );
#137 = DIRECTION( '', ( 1.00000000000000, 0.000000000000000, 0.000000000000000 ) );
#138 =  ( LENGTH_UNIT(  )NAMED_UNIT( #74 )SI_UNIT( .MILLI., .METRE. ) );
#139 = SURFACE_SIDE_STYLE( '', ( #190 ) );
#140 = EDGE_LOOP( '', ( #191 ) );
#141 = EDGE_LOOP( '', ( #192 ) );
#142 = AXIS2_PLACEMENT_3D( '', #193, #194, #195 );
#143 = SURFACE_SIDE_STYLE( '', ( #196 ) );
#144 = EDGE_LOOP( '', ( #197 ) );
#145 = EDGE_LOOP( '', ( #198 ) );
#146 = AXIS2_PLACEMENT_3D( '', #199, #200, #201 );
#147 = SURFACE_SIDE_STYLE( '', ( #202 ) );
#148 = EDGE_LOOP( '', ( #203 ) );
#149 = EDGE_LOOP( '', ( #204 ) );
#150 = AXIS2_PLACEMENT_3D( '', #205, #206, #207 );
#151 = SURFACE_SIDE_STYLE( '', ( #208 ) );
#152 = EDGE_LOOP( '', ( #209, #210, #211, #212 ) );
#153 = AXIS2_PLACEMENT_3D( '', #213, #214, #215 );
#154 = SURFACE_SIDE_STYLE( '', ( #216 ) );
#155 = EDGE_LOOP( '', ( #217 ) );
#156 = EDGE_LOOP( '', ( #218 ) );
#157 = AXIS2_PLACEMENT_3D( '', #219, #220, #221 );
#158 = SURFACE_SIDE_STYLE( '', ( #222 ) );
#159 = EDGE_LOOP( '', ( #223 ) );
#160 = EDGE_LOOP( '', ( #224 ) );
#161 = AXIS2_PLACEMENT_3D( '', #225, #226, #227 );
#162 = SURFACE_SIDE_STYLE( '', ( #228 ) );
#163 = EDGE_LOOP( '', ( #229 ) );
#164 = EDGE_LOOP( '', ( #230, #231, #232, #233 ) );
#165 = AXIS2_PLACEMENT_3D( '', #234, #235, #236 );
#166 = SURFACE_SIDE_STYLE( '', ( #237 ) );
#167 = EDGE_LOOP( '', ( #238, #239, #240, #241 ) );
#168 = AXIS2_PLACEMENT_3D( '', #242, #243, #244 );
#169 = SURFACE_SIDE_STYLE( '', ( #245 ) );
#170 = EDGE_LOOP( '', ( #246, #247 ) );
#171 = AXIS2_PLACEMENT_3D( '', #248, #249, #250 );
#172 = SURFACE_SIDE_STYLE( '', ( #251 ) );
#173 = EDGE_LOOP( '', ( #252 ) );
#174 = AXIS2_PLACEMENT_3D( '', #253, #254, #255 );
#175 = SURFACE_SIDE_STYLE( '', ( #256 ) );
#176 = EDGE_LOOP( '', ( #257 ) );
#177 = EDGE_LOOP( '', ( #258 ) );
#178 = AXIS2_PLACEMENT_3D( '', #259, #260, #261 );
#179 = SURFACE_SIDE_STYLE( '', ( #262 ) );
#180 = EDGE_LOOP( '', ( #263 ) );
#181 = EDGE_LOOP( '', ( #264, #265, #266, #267, #268, #269, #270, #271 ) );
#182 = AXIS2_PLACEMENT_3D( '', #272, #273, #274 );
#183 = SURFACE_SIDE_STYLE( '', ( #275 ) );
#184 = EDGE_LOOP( '', ( #276, #277 ) );
#185 = AXIS2_PLACEMENT_3D( '', #278, #279, #280 );
#186 = SURFACE_SIDE_STYLE( '', ( #281 ) );
#187 = EDGE_LOOP( '', ( #282 ) );
#188 = AXIS2_PLACEMENT_3D( '', #283, #284, #285 );
#190 = SURFACE_STYLE_FILL_AREA( #286 );
#191 = ORIENTED_EDGE( '', *, *, #287, .T. );
#192 = ORIENTED_EDGE( '', *, *, #288, .F. );
#193 = CARTESIAN_POINT( '', ( 0.000000000000000, 0.000000000000000, 12.4000000000000 ) );
#194 = DIRECTION( '', ( -0.000000000000000, 0.000000000000000, -1.00000000000000 ) );
#195 = DIRECTION( '', ( -1.00000000000000, 0.000000000000000, 0.000000000000000 ) );
#196 = SURFACE_STYLE_FILL_AREA( #289 );
#197 = ORIENTED_EDGE( '', *, *, #290, .F. );
#198 = ORIENTED_EDGE( '', *, *, #291, .F. );
#199 = CARTESIAN_POINT( '', ( 6.93889390390723E-015, 0.000000000000000, 15.7000000000000 ) );
#200 = DIRECTION( '', ( 0.000000000000000, 0.000000000000000, 1.00000000000000 ) );
#201 = DIRECTION( '', ( 1.00000000000000, 0.000000000000000, 0.000000000000000 ) );
#202 = SURFACE_STYLE_FILL_AREA( #292 );
#203 = ORIENTED_EDGE( '', *, *, #293, .T. );
#204 = ORIENTED_EDGE( '', *, *, #294, .F. );
#205 = CARTESIAN_POINT( '', ( 0.000000000000000, 0.000000000000000, -10.0000000000000 ) );
#206 = DIRECTION( '', ( -0.000000000000000, -0.000000000000000, -1.00000000000000 ) );
#207 = DIRECTION( '', ( 1.00000000000000, 0.000000000000000, 0.000000000000000 ) );
#208 = SURFACE_STYLE_FILL_AREA( #295 );
#209 = ORIENTED_EDGE( '', *, *, #296, .T. );
#210 = ORIENTED_EDGE( '', *, *, #297, .T. );
#211 = ORIENTED_EDGE( '', *, *, #298, .T. );
#212 = ORIENTED_EDGE( '', *, *, #299, .F. );
#213 = CARTESIAN_POINT( '', ( 8.50000000000000, -10.0000000000000, 7.80000000000000 ) );
#214 = DIRECTION( '', ( 1.00000000000000, 0.000000000000000, 2.22400445638052E-016 ) );
#215 = DIRECTION( '', ( 2.22400445638052E-016, 0.000000000000000, -1.00000000000000 ) );
#216 = SURFACE_STYLE_FILL_AREA( #300 );
#217 = ORIENTED_EDGE( '', *, *, #291, .T. );
#218 = ORIENTED_EDGE( '', *, *, #287, .F. );
#219 = CARTESIAN_POINT( '', ( 0.000000000000000, 0.000000000000000, 14.2980000000000 ) );
#220 = DIRECTION( '', ( -0.000000000000000, 0.000000000000000, -1.00000000000000 ) );
#221 = DIRECTION( '', ( -1.00000000000000, 0.000000000000000, 0.000000000000000 ) );
#222 = SURFACE_STYLE_FILL_AREA( #301 );
#223 = ORIENTED_EDGE( '', *, *, #290, .T. );
#224 = ORIENTED_EDGE( '', *, *, #302, .F. );
#225 = CARTESIAN_POINT( '', ( 5.08228421646152E-015, 0.000000000000000, 12.5000000000000 ) );
#226 = DIRECTION( '', ( 0.000000000000000, 0.000000000000000, 1.00000000000000 ) );
#227 = DIRECTION( '', ( 1.00000000000000, 0.000000000000000, 0.000000000000000 ) );
#228 = SURFACE_STYLE_FILL_AREA( #303 );
#229 = ORIENTED_EDGE( '', *, *, #294, .T. );
#230 = ORIENTED_EDGE( '', *, *, #304, .T. );
#231 = ORIENTED_EDGE( '', *, *, #305, .F. );
#232 = ORIENTED_EDGE( '', *, *, #297, .F. );
#233 = ORIENTED_EDGE( '', *, *, #306, .F. );
#234 = CARTESIAN_POINT( '', ( 6.93889390390723E-015, 0.000000000000000, 0.000000000000000 ) );
#235 = DIRECTION( '', ( 0.000000000000000, 0.000000000000000, 1.00000000000000 ) );
#236 = DIRECTION( '', ( 1.00000000000000, 0.000000000000000, 0.000000000000000 ) );
#237 = SURFACE_STYLE_FILL_AREA( #307 );
#238 = ORIENTED_EDGE( '', *, *, #308, .T. );
#239 = ORIENTED_EDGE( '', *, *, #304, .F. );
#240 = ORIENTED_EDGE( '', *, *, #309, .T. );
#241 = ORIENTED_EDGE( '', *, *, #310, .T. );
#242 = CARTESIAN_POINT( '', ( -8.50000000000000, -10.0000000000000, 0.000000000000000 ) );
#243 = DIRECTION( '', ( -1.00000000000000, 0.000000000000000, 0.000000000000000 ) );
#244 = DIRECTION( '', ( 0.000000000000000, 0.000000000000000, 1.00000000000000 ) );
#245 = SURFACE_STYLE_FILL_AREA( #311 );
#246 = ORIENTED_EDGE( '', *, *, #312, .T. );
#247 = ORIENTED_EDGE( '', *, *, #310, .F. );
#248 = CARTESIAN_POINT( '', ( -8.50000000000000, -10.0000000000000, 7.80000000000000 ) );
#249 = DIRECTION( '', ( 0.000000000000000, 0.000000000000000, -1.00000000000000 ) );
#250 = DIRECTION( '', ( -1.00000000000000, 0.000000000000000, 0.000000000000000 ) );
#251 = SURFACE_STYLE_FILL_AREA( #313 );
#252 = ORIENTED_EDGE( '', *, *, #314, .T. );
#253 = CARTESIAN_POINT( '', ( 0.000000000000000, 0.000000000000000, -10.0000000000000 ) );
#254 = DIRECTION( '', ( 0.000000000000000, 0.000000000000000, 1.00000000000000 ) );
#255 = DIRECTION( '', ( 1.00000000000000, 0.000000000000000, 0.000000000000000 ) );
#256 = SURFACE_STYLE_FILL_AREA( #315 );
#257 = ORIENTED_EDGE( '', *, *, #314, .F. );
#258 = ORIENTED_EDGE( '', *, *, #293, .F. );
#259 = CARTESIAN_POINT( '', ( 0.000000000000000, 0.000000000000000, -8.50000000000000 ) );
#260 = DIRECTION( '', ( -0.000000000000000, -0.000000000000000, 1.00000000000000 ) );
#261 = DIRECTION( '', ( 1.00000000000000, 0.000000000000000, 0.000000000000000 ) );
#262 = SURFACE_STYLE_FILL_AREA( #316 );
#263 = ORIENTED_EDGE( '', *, *, #288, .T. );
#264 = ORIENTED_EDGE( '', *, *, #308, .F. );
#265 = ORIENTED_EDGE( '', *, *, #312, .F. );
#266 = ORIENTED_EDGE( '', *, *, #309, .F. );
#267 = ORIENTED_EDGE( '', *, *, #306, .T. );
#268 = ORIENTED_EDGE( '', *, *, #296, .F. );
#269 = ORIENTED_EDGE( '', *, *, #317, .F. );
#270 = ORIENTED_EDGE( '', *, *, #298, .F. );
#271 = ORIENTED_EDGE( '', *, *, #305, .T. );
#272 = CARTESIAN_POINT( '', ( 6.93889390390723E-015, 0.000000000000000, 15.7000000000000 ) );
#273 = DIRECTION( '', ( -0.000000000000000, -0.000000000000000, 1.00000000000000 ) );
#274 = DIRECTION( '', ( -1.00000000000000, 0.000000000000000, 0.000000000000000 ) );
#275 = SURFACE_STYLE_FILL_AREA( #318 );
#276 = ORIENTED_EDGE( '', *, *, #299, .T. );
#277 = ORIENTED_EDGE( '', *, *, #317, .T. );
#278 = CARTESIAN_POINT( '', ( 10.0000000000000, -10.0000000000000, 7.80000000000000 ) );
#279 = DIRECTION( '', ( 0.000000000000000, 0.000000000000000, -1.00000000000000 ) );
#280 = DIRECTION( '', ( -1.00000000000000, 0.000000000000000, 0.000000000000000 ) );
#281 = SURFACE_STYLE_FILL_AREA( #319 );
#282 = ORIENTED_EDGE( '', *, *, #302, .T. );
#283 = CARTESIAN_POINT( '', ( 0.000000000000000, 0.000000000000000, 18.0000000000000 ) );
#284 = DIRECTION( '', ( 0.000000000000000, 0.000000000000000, 1.00000000000000 ) );
#285 = DIRECTION( '', ( 1.00000000000000, 0.000000000000000, 0.000000000000000 ) );
#286 = FILL_AREA_STYLE( '', ( #320 ) );
#287 = EDGE_CURVE( '', #321, #321, #322, .T. );
#288 = EDGE_CURVE( '', #323, #323, #324, .T. );
#289 = FILL_AREA_STYLE( '', ( #325 ) );
#290 = EDGE_CURVE( '', #326, #326, #327, .T. );
#291 = EDGE_CURVE( '', #328, #328, #329, .T. );
#292 = FILL_AREA_STYLE( '', ( #330 ) );
#293 = EDGE_CURVE( '', #331, #331, #332, .T. );
#294 = EDGE_CURVE( '', #333, #333, #334, .T. );
#295 = FILL_AREA_STYLE( '', ( #335 ) );
#296 = EDGE_CURVE( '', #336, #337, #338, .T. );
#297 = EDGE_CURVE( '', #337, #339, #340, .T. );
#298 = EDGE_CURVE( '', #339, #341, #342, .F. );
#299 = EDGE_CURVE( '', #336, #341, #343, .T. );
#300 = FILL_AREA_STYLE( '', ( #344 ) );
#301 = FILL_AREA_STYLE( '', ( #345 ) );
#302 = EDGE_CURVE( '', #346, #346, #347, .T. );
#303 = FILL_AREA_STYLE( '', ( #348 ) );
#304 = EDGE_CURVE( '', #349, #350, #351, .T. );
#305 = EDGE_CURVE( '', #339, #350, #352, .T. );
#306 = EDGE_CURVE( '', #349, #337, #353, .T. );
#307 = FILL_AREA_STYLE( '', ( #354 ) );
#308 = EDGE_CURVE( '', #355, #350, #356, .T. );
#309 = EDGE_CURVE( '', #349, #357, #358, .F. );
#310 = EDGE_CURVE( '', #357, #355, #359, .T. );
#311 = FILL_AREA_STYLE( '', ( #360 ) );
#312 = EDGE_CURVE( '', #357, #355, #361, .T. );
#313 = FILL_AREA_STYLE( '', ( #362 ) );
#314 = EDGE_CURVE( '', #363, #363, #364, .F. );
#315 = FILL_AREA_STYLE( '', ( #365 ) );
#316 = FILL_AREA_STYLE( '', ( #366 ) );
#317 = EDGE_CURVE( '', #341, #336, #367, .T. );
#318 = FILL_AREA_STYLE( '', ( #368 ) );
#319 = FILL_AREA_STYLE( '', ( #369 ) );
#320 = FILL_AREA_STYLE_COLOUR( '', #370 );
#321 = VERTEX_POINT( '', #371 );
#322 = CIRCLE( '', #372, 8.10201703083385 );
#323 = VERTEX_POINT( '', #373 );
#324 = CIRCLE( '', #374, 10.0000000000000 );
#325 = FILL_AREA_STYLE_COLOUR( '', #375 );
#326 = VERTEX_POINT( '', #376 );
#327 = CIRCLE( '', #377, 6.78306715284464 );
#328 = VERTEX_POINT( '', #378 );
#329 = CIRCLE( '', #379, 7.70000000000000 );
#330 = FILL_AREA_STYLE_COLOUR( '', #380 );
#331 = VERTEX_POINT( '', #381 );
#332 = CIRCLE( '', #382, 5.00000000000000 );
#333 = VERTEX_POINT( '', #383 );
#334 = CIRCLE( '', #384, 5.00000000000000 );
#335 = FILL_AREA_STYLE_COLOUR( '', #385 );
#336 = VERTEX_POINT( '', #386 );
#337 = VERTEX_POINT( '', #387 );
#338 = LINE( '', #388, #389 );
#339 = VERTEX_POINT( '', #390 );
#340 = LINE( '', #391, #392 );
#341 = VERTEX_POINT( '', #393 );
#342 = LINE( '', #394, #395 );
#343 = LINE( '', #396, #397 );
#344 = FILL_AREA_STYLE_COLOUR( '', #398 );
#345 = FILL_AREA_STYLE_COLOUR( '', #399 );
#346 = VERTEX_POINT( '', #400 );
#347 = CIRCLE( '', #401, 5.09901951359279 );
#348 = FILL_AREA_STYLE_COLOUR( '', #402 );
#349 = VERTEX_POINT( '', #403 );
#350 = VERTEX_POINT( '', #404 );
#351 = LINE( '', #405, #406 );
#352 = CIRCLE( '', #407, 10.0000000000000 );
#353 = CIRCLE( '', #408, 10.0000000000000 );
#354 = FILL_AREA_STYLE_COLOUR( '', #409 );
#355 = VERTEX_POINT( '', #410 );
#356 = LINE( '', #411, #412 );
#357 = VERTEX_POINT( '', #413 );
#358 = LINE( '', #414, #415 );
#359 = LINE( '', #416, #417 );
#360 = FILL_AREA_STYLE_COLOUR( '', #418 );
#361 = CIRCLE( '', #419, 10.0000000000000 );
#362 = FILL_AREA_STYLE_COLOUR( '', #420 );
#363 = VERTEX_POINT( '', #421 );
#364 = CIRCLE( '', #422, 3.50000000000000 );
#365 = FILL_AREA_STYLE_COLOUR( '', #423 );
#366 = FILL_AREA_STYLE_COLOUR( '', #424 );
#367 = CIRCLE( '', #425, 10.0000000000000 );
#368 = FILL_AREA_STYLE_COLOUR( '', #426 );
#369 = FILL_AREA_STYLE_COLOUR( '', #427 );
#370 = COLOUR_RGB( '', 0.200000002980232, 0.200000002980232, 0.200000002980232 );
#371 = CARTESIAN_POINT( '', ( -8.10201703083385, 0.000000000000000, 14.2980000000000 ) );
#372 = AXIS2_PLACEMENT_3D( '', #428, #429, #430 );
#373 = CARTESIAN_POINT( '', ( -10.0000000000000, 0.000000000000000, 12.4000000000000 ) );
#374 = AXIS2_PLACEMENT_3D( '', #431, #432, #433 );
#375 = COLOUR_RGB( '', 0.200000002980232, 0.200000002980232, 0.200000002980232 );
#376 = CARTESIAN_POINT( '', ( 6.78306715284465, 0.000000000000000, 15.7000000000000 ) );
#377 = AXIS2_PLACEMENT_3D( '', #434, #435, #436 );
#378 = CARTESIAN_POINT( '', ( -7.70000000000000, 0.000000000000000, 15.7000000000000 ) );
#379 = AXIS2_PLACEMENT_3D( '', #437, #438, #439 );
#380 = COLOUR_RGB( '', 0.200000002980232, 0.200000002980232, 0.200000002980232 );
#381 = CARTESIAN_POINT( '', ( 5.00000000000000, 0.000000000000000, -8.50000000000000 ) );
#382 = AXIS2_PLACEMENT_3D( '', #440, #441, #442 );
#383 = CARTESIAN_POINT( '', ( 5.00000000000000, 0.000000000000000, 0.000000000000000 ) );
#384 = AXIS2_PLACEMENT_3D( '', #443, #444, #445 );
#385 = COLOUR_RGB( '', 0.200000002980232, 0.200000002980232, 0.200000002980232 );
#386 = CARTESIAN_POINT( '', ( 8.50000000000000, -5.26782687642638, 7.80000000000000 ) );
#387 = CARTESIAN_POINT( '', ( 8.50000000000000, -5.26782687642638, 0.000000000000000 ) );
#388 = CARTESIAN_POINT( '', ( 8.50000000000000, -5.26782687642638, 15.7000000000000 ) );
#389 = VECTOR( '', #446, 1000.00000000000 );
#390 = CARTESIAN_POINT( '', ( 8.50000000000000, 5.26782687642638, 0.000000000000000 ) );
#391 = CARTESIAN_POINT( '', ( 8.50000000000000, -10.0000000000000, 0.000000000000000 ) );
#392 = VECTOR( '', #447, 1000.00000000000 );
#393 = CARTESIAN_POINT( '', ( 8.50000000000000, 5.26782687642638, 7.80000000000000 ) );
#394 = CARTESIAN_POINT( '', ( 8.50000000000000, 5.26782687642638, 15.7000000000000 ) );
#395 = VECTOR( '', #448, 1000.00000000000 );
#396 = CARTESIAN_POINT( '', ( 8.50000000000000, -10.0000000000000, 7.80000000000000 ) );
#397 = VECTOR( '', #449, 1000.00000000000 );
#398 = COLOUR_RGB( '', 0.200000002980232, 0.200000002980232, 0.200000002980232 );
#399 = COLOUR_RGB( '', 1.00000000000000, 1.00000000000000, 1.00000000000000 );
#400 = CARTESIAN_POINT( '', ( 5.09901951359279, 0.000000000000000, 18.0000000000000 ) );
#401 = AXIS2_PLACEMENT_3D( '', #450, #451, #452 );
#402 = COLOUR_RGB( '', 0.200000002980232, 0.200000002980232, 0.200000002980232 );
#403 = CARTESIAN_POINT( '', ( -8.50000000000000, -5.26782687642636, 0.000000000000000 ) );
#404 = CARTESIAN_POINT( '', ( -8.50000000000000, 5.26782687642636, 0.000000000000000 ) );
#405 = CARTESIAN_POINT( '', ( -8.50000000000000, -10.0000000000000, 0.000000000000000 ) );
#406 = VECTOR( '', #453, 1000.00000000000 );
#407 = AXIS2_PLACEMENT_3D( '', #454, #455, #456 );
#408 = AXIS2_PLACEMENT_3D( '', #457, #458, #459 );
#409 = COLOUR_RGB( '', 0.200000002980232, 0.200000002980232, 0.200000002980232 );
#410 = CARTESIAN_POINT( '', ( -8.50000000000000, 5.26782687642636, 7.80000000000000 ) );
#411 = CARTESIAN_POINT( '', ( -8.50000000000000, 5.26782687642636, 15.7000000000000 ) );
#412 = VECTOR( '', #460, 1000.00000000000 );
#413 = CARTESIAN_POINT( '', ( -8.50000000000000, -5.26782687642636, 7.80000000000000 ) );
#414 = CARTESIAN_POINT( '', ( -8.50000000000000, -5.26782687642636, 15.7000000000000 ) );
#415 = VECTOR( '', #461, 1000.00000000000 );
#416 = CARTESIAN_POINT( '', ( -8.50000000000000, -10.0000000000000, 7.80000000000000 ) );
#417 = VECTOR( '', #462, 1000.00000000000 );
#418 = COLOUR_RGB( '', 0.200000002980232, 0.200000002980232, 0.200000002980232 );
#419 = AXIS2_PLACEMENT_3D( '', #463, #464, #465 );
#420 = COLOUR_RGB( '', 0.200000002980232, 0.200000002980232, 0.200000002980232 );
#421 = CARTESIAN_POINT( '', ( 3.50000000000000, 0.000000000000000, -10.0000000000000 ) );
#422 = AXIS2_PLACEMENT_3D( '', #466, #467, #468 );
#423 = COLOUR_RGB( '', 0.200000002980232, 0.200000002980232, 0.200000002980232 );
#424 = COLOUR_RGB( '', 0.200000002980232, 0.200000002980232, 0.200000002980232 );
#425 = AXIS2_PLACEMENT_3D( '', #469, #470, #471 );
#426 = COLOUR_RGB( '', 0.200000002980232, 0.200000002980232, 0.200000002980232 );
#427 = COLOUR_RGB( '', 1.00000000000000, 1.00000000000000, 1.00000000000000 );
#428 = CARTESIAN_POINT( '', ( 0.000000000000000, 0.000000000000000, 14.2980000000000 ) );
#429 = DIRECTION( '', ( 0.000000000000000, 0.000000000000000, -1.00000000000000 ) );
#430 = DIRECTION( '', ( -1.00000000000000, 0.000000000000000, 0.000000000000000 ) );
#431 = CARTESIAN_POINT( '', ( 0.000000000000000, 0.000000000000000, 12.4000000000000 ) );
#432 = DIRECTION( '', ( 0.000000000000000, 0.000000000000000, -1.00000000000000 ) );
#433 = DIRECTION( '', ( -1.00000000000000, 0.000000000000000, 0.000000000000000 ) );
#434 = CARTESIAN_POINT( '', ( 5.08228421646152E-015, 0.000000000000000, 15.7000000000000 ) );
#435 = DIRECTION( '', ( 0.000000000000000, 0.000000000000000, 1.00000000000000 ) );
#436 = DIRECTION( '', ( 1.00000000000000, 0.000000000000000, 0.000000000000000 ) );
#437 = CARTESIAN_POINT( '', ( 0.000000000000000, 0.000000000000000, 15.7000000000000 ) );
#438 = DIRECTION( '', ( 0.000000000000000, 0.000000000000000, -1.00000000000000 ) );
#439 = DIRECTION( '', ( -1.00000000000000, 0.000000000000000, 0.000000000000000 ) );
#440 = CARTESIAN_POINT( '', ( 0.000000000000000, 0.000000000000000, -8.50000000000000 ) );
#441 = DIRECTION( '', ( 0.000000000000000, 0.000000000000000, 1.00000000000000 ) );
#442 = DIRECTION( '', ( 1.00000000000000, 0.000000000000000, 0.000000000000000 ) );
#443 = CARTESIAN_POINT( '', ( 0.000000000000000, 0.000000000000000, 0.000000000000000 ) );
#444 = DIRECTION( '', ( 0.000000000000000, 0.000000000000000, 1.00000000000000 ) );
#445 = DIRECTION( '', ( 1.00000000000000, 0.000000000000000, 0.000000000000000 ) );
#446 = DIRECTION( '', ( 0.000000000000000, 0.000000000000000, -1.00000000000000 ) );
#447 = DIRECTION( '', ( 0.000000000000000, 1.00000000000000, 0.000000000000000 ) );
#448 = DIRECTION( '', ( 0.000000000000000, 0.000000000000000, -1.00000000000000 ) );
#449 = DIRECTION( '', ( 0.000000000000000, 1.00000000000000, 0.000000000000000 ) );
#450 = CARTESIAN_POINT( '', ( 0.000000000000000, 0.000000000000000, 18.0000000000000 ) );
#451 = DIRECTION( '', ( 0.000000000000000, 0.000000000000000, 1.00000000000000 ) );
#452 = DIRECTION( '', ( 1.00000000000000, 0.000000000000000, 0.000000000000000 ) );
#453 = DIRECTION( '', ( 0.000000000000000, 1.00000000000000, 0.000000000000000 ) );
#454 = CARTESIAN_POINT( '', ( 6.93889390390723E-015, 0.000000000000000, 0.000000000000000 ) );
#455 = DIRECTION( '', ( 0.000000000000000, 0.000000000000000, 1.00000000000000 ) );
#456 = DIRECTION( '', ( 1.00000000000000, 0.000000000000000, 0.000000000000000 ) );
#457 = CARTESIAN_POINT( '', ( 6.93889390390723E-015, 0.000000000000000, 0.000000000000000 ) );
#458 = DIRECTION( '', ( 0.000000000000000, 0.000000000000000, 1.00000000000000 ) );
#459 = DIRECTION( '', ( 1.00000000000000, 0.000000000000000, 0.000000000000000 ) );
#460 = DIRECTION( '', ( 0.000000000000000, 0.000000000000000, -1.00000000000000 ) );
#461 = DIRECTION( '', ( 0.000000000000000, 0.000000000000000, -1.00000000000000 ) );
#462 = DIRECTION( '', ( 0.000000000000000, 1.00000000000000, 0.000000000000000 ) );
#463 = CARTESIAN_POINT( '', ( 6.93889390390723E-015, 0.000000000000000, 7.80000000000000 ) );
#464 = DIRECTION( '', ( 0.000000000000000, 0.000000000000000, -1.00000000000000 ) );
#465 = DIRECTION( '', ( -1.00000000000000, 0.000000000000000, 0.000000000000000 ) );
#466 = CARTESIAN_POINT( '', ( 0.000000000000000, 0.000000000000000, -10.0000000000000 ) );
#467 = DIRECTION( '', ( 0.000000000000000, 0.000000000000000, 1.00000000000000 ) );
#468 = DIRECTION( '', ( 1.00000000000000, 0.000000000000000, 0.000000000000000 ) );
#469 = CARTESIAN_POINT( '', ( 6.93889390390723E-015, 0.000000000000000, 7.80000000000000 ) );
#470 = DIRECTION( '', ( 0.000000000000000, 0.000000000000000, -1.00000000000000 ) );
#471 = DIRECTION( '', ( -1.00000000000000, 0.000000000000000, 0.000000000000000 ) );
ENDSEC;
END-ISO-10303-21;
