ISO-10303-21;
HEADER;
FILE_DESCRIPTION( ( 'Unknown' ), '1' );
FILE_NAME( 'S:/LEAVE 2D&3D CAD/LEAVE 3D-STEP/Metric/PT-3D/PT50-3D/PT50-1627.stp', 'Unknown', ( 'Unknown' ), ( 'Unknown' ), 'PSStep 16.0.42', 'Unknown', '  ' );
FILE_SCHEMA( ( 'AUTOMOTIVE_DESIGN { 1 0 10303 214 1 1 1 1 }' ) );
ENDSEC;
DATA;
#1 = MECHANICAL_DESIGN_GEOMETRIC_PRESENTATION_REPRESENTATION( ' ', ( #10, #11, #12, #13, #14, #15, #16, #17, #18, #19, #20, #21, #22, #23 ), #6 );
#2 = PRODUCT_DEFINITION_CONTEXT( '', #24, 'design' );
#3 = APPLICATION_PROTOCOL_DEFINITION( 'international standard', 'automotive_design', 2001, #24 );
#4 = PRODUCT_CATEGORY_RELATIONSHIP( 'NONE', 'NONE', #25, #26 );
#5 = SHAPE_DEFINITION_REPRESENTATION( #27, #28 );
#6 =  ( GEOMETRIC_REPRESENTATION_CONTEXT( 3 )GLOBAL_UNCERTAINTY_ASSIGNED_CONTEXT( ( #31 ) )GLOBAL_UNIT_ASSIGNED_CONTEXT( ( #33, #34, #35 ) )REPRESENTATION_CONTEXT( 'NONE', 'WORKSPACE' ) );
#10 = STYLED_ITEM( '', ( #37 ), #38 );
#11 = STYLED_ITEM( '', ( #39 ), #40 );
#12 = STYLED_ITEM( '', ( #41 ), #42 );
#13 = STYLED_ITEM( '', ( #43 ), #44 );
#14 = STYLED_ITEM( '', ( #45 ), #46 );
#15 = STYLED_ITEM( '', ( #47 ), #48 );
#16 = STYLED_ITEM( '', ( #49 ), #50 );
#17 = STYLED_ITEM( '', ( #51 ), #52 );
#18 = STYLED_ITEM( '', ( #53 ), #54 );
#19 = STYLED_ITEM( '', ( #55 ), #56 );
#20 = STYLED_ITEM( '', ( #57 ), #58 );
#21 = STYLED_ITEM( '', ( #59 ), #60 );
#22 = STYLED_ITEM( '', ( #61 ), #62 );
#23 = STYLED_ITEM( '', ( #63 ), #64 );
#24 = APPLICATION_CONTEXT( 'core data for automotive mechanical design processes' );
#25 = PRODUCT_CATEGORY( 'part', 'NONE' );
#26 = PRODUCT_RELATED_PRODUCT_CATEGORY( 'detail', ' ', ( #65 ) );
#27 = PRODUCT_DEFINITION_SHAPE( 'NONE', 'NONE', #66 );
#28 = ADVANCED_BREP_SHAPE_REPRESENTATION( '1', ( #67, #68 ), #6 );
#31 = UNCERTAINTY_MEASURE_WITH_UNIT( LENGTH_MEASURE( 0.00100000000000000 ), #33, '', '' );
#33 =  ( CONVERSION_BASED_UNIT( 'MILLIMETRE', #71 )LENGTH_UNIT(  )NAMED_UNIT( #74 ) );
#34 =  ( NAMED_UNIT( #76 )PLANE_ANGLE_UNIT(  )SI_UNIT( $, .RADIAN. ) );
#35 =  ( NAMED_UNIT( #76 )SI_UNIT( $, .STERADIAN. )SOLID_ANGLE_UNIT(  ) );
#37 = PRESENTATION_STYLE_ASSIGNMENT( ( #82 ) );
#38 = ADVANCED_FACE( '', ( #83, #84 ), #85, .T. );
#39 = PRESENTATION_STYLE_ASSIGNMENT( ( #86 ) );
#40 = ADVANCED_FACE( '', ( #87, #88 ), #89, .T. );
#41 = PRESENTATION_STYLE_ASSIGNMENT( ( #90 ) );
#42 = ADVANCED_FACE( '', ( #91 ), #92, .T. );
#43 = PRESENTATION_STYLE_ASSIGNMENT( ( #93 ) );
#44 = ADVANCED_FACE( '', ( #94 ), #95, .T. );
#45 = PRESENTATION_STYLE_ASSIGNMENT( ( #96 ) );
#46 = ADVANCED_FACE( '', ( #97, #98 ), #99, .T. );
#47 = PRESENTATION_STYLE_ASSIGNMENT( ( #100 ) );
#48 = ADVANCED_FACE( '', ( #101, #102 ), #103, .T. );
#49 = PRESENTATION_STYLE_ASSIGNMENT( ( #104 ) );
#50 = ADVANCED_FACE( '', ( #105 ), #106, .F. );
#51 = PRESENTATION_STYLE_ASSIGNMENT( ( #107 ) );
#52 = ADVANCED_FACE( '', ( #108 ), #109, .T. );
#53 = PRESENTATION_STYLE_ASSIGNMENT( ( #110 ) );
#54 = ADVANCED_FACE( '', ( #111, #112 ), #113, .T. );
#55 = PRESENTATION_STYLE_ASSIGNMENT( ( #114 ) );
#56 = ADVANCED_FACE( '', ( #115, #116 ), #117, .F. );
#57 = PRESENTATION_STYLE_ASSIGNMENT( ( #118 ) );
#58 = ADVANCED_FACE( '', ( #119 ), #120, .T. );
#59 = PRESENTATION_STYLE_ASSIGNMENT( ( #121 ) );
#60 = ADVANCED_FACE( '', ( #122 ), #123, .T. );
#61 = PRESENTATION_STYLE_ASSIGNMENT( ( #124 ) );
#62 = ADVANCED_FACE( '', ( #125, #126 ), #127, .T. );
#63 = PRESENTATION_STYLE_ASSIGNMENT( ( #128 ) );
#64 = ADVANCED_FACE( '', ( #129, #130 ), #131, .T. );
#65 = PRODUCT( '1', '1', 'PART-1-DESC', ( #132 ) );
#66 = PRODUCT_DEFINITION( 'NONE', 'NONE', #133, #2 );
#67 = MANIFOLD_SOLID_BREP( '1', #134 );
#68 = AXIS2_PLACEMENT_3D( '', #135, #136, #137 );
#71 = LENGTH_MEASURE_WITH_UNIT( LENGTH_MEASURE( 1.00000000000000 ), #138 );
#74 = DIMENSIONAL_EXPONENTS( 1.00000000000000, 0.000000000000000, 0.000000000000000, 0.000000000000000, 0.000000000000000, 0.000000000000000, 0.000000000000000 );
#76 = DIMENSIONAL_EXPONENTS( 0.000000000000000, 0.000000000000000, 0.000000000000000, 0.000000000000000, 0.000000000000000, 0.000000000000000, 0.000000000000000 );
#82 = SURFACE_STYLE_USAGE( .BOTH., #139 );
#83 = FACE_BOUND( '', #140, .T. );
#84 = FACE_OUTER_BOUND( '', #141, .T. );
#85 = CONICAL_SURFACE( '', #142, 15.0000000000000, 0.785398163397446 );
#86 = SURFACE_STYLE_USAGE( .BOTH., #143 );
#87 = FACE_OUTER_BOUND( '', #144, .T. );
#88 = FACE_OUTER_BOUND( '', #145, .T. );
#89 = CYLINDRICAL_SURFACE( '', #146, 8.00000000000000 );
#90 = SURFACE_STYLE_USAGE( .BOTH., #147 );
#91 = FACE_OUTER_BOUND( '', #148, .T. );
#92 = PLANE( '', #149 );
#93 = SURFACE_STYLE_USAGE( .BOTH., #150 );
#94 = FACE_OUTER_BOUND( '', #151, .T. );
#95 = PLANE( '', #152 );
#96 = SURFACE_STYLE_USAGE( .BOTH., #153 );
#97 = FACE_OUTER_BOUND( '', #154, .T. );
#98 = FACE_OUTER_BOUND( '', #155, .T. );
#99 = SPHERICAL_SURFACE( '', #156, 12.7000000000000 );
#100 = SURFACE_STYLE_USAGE( .BOTH., #157 );
#101 = FACE_OUTER_BOUND( '', #158, .T. );
#102 = FACE_OUTER_BOUND( '', #159, .T. );
#103 = CYLINDRICAL_SURFACE( '', #160, 15.0000000000000 );
#104 = SURFACE_STYLE_USAGE( .BOTH., #161 );
#105 = FACE_OUTER_BOUND( '', #162, .T. );
#106 = PLANE( '', #163 );
#107 = SURFACE_STYLE_USAGE( .BOTH., #164 );
#108 = FACE_OUTER_BOUND( '', #165, .T. );
#109 = PLANE( '', #166 );
#110 = SURFACE_STYLE_USAGE( .BOTH., #167 );
#111 = FACE_BOUND( '', #168, .T. );
#112 = FACE_OUTER_BOUND( '', #169, .T. );
#113 = PLANE( '', #170 );
#114 = SURFACE_STYLE_USAGE( .BOTH., #171 );
#115 = FACE_BOUND( '', #172, .T. );
#116 = FACE_OUTER_BOUND( '', #173, .T. );
#117 = PLANE( '', #174 );
#118 = SURFACE_STYLE_USAGE( .BOTH., #175 );
#119 = FACE_OUTER_BOUND( '', #176, .T. );
#120 = PLANE( '', #177 );
#121 = SURFACE_STYLE_USAGE( .BOTH., #178 );
#122 = FACE_OUTER_BOUND( '', #179, .T. );
#123 = PLANE( '', #180 );
#124 = SURFACE_STYLE_USAGE( .BOTH., #181 );
#125 = FACE_BOUND( '', #182, .T. );
#126 = FACE_OUTER_BOUND( '', #183, .T. );
#127 = CONICAL_SURFACE( '', #184, 8.00000000000000, 0.785398163397448 );
#128 = SURFACE_STYLE_USAGE( .BOTH., #185 );
#129 = FACE_BOUND( '', #186, .T. );
#130 = FACE_OUTER_BOUND( '', #187, .T. );
#131 = CONICAL_SURFACE( '', #188, 14.0065698604072, 0.261799387799149 );
#132 = PRODUCT_CONTEXT( '', #24, 'mechanical' );
#133 = PRODUCT_DEFINITION_FORMATION_WITH_SPECIFIED_SOURCE( ' ', 'NONE', #65, .NOT_KNOWN. );
#134 = CLOSED_SHELL( '', ( #46, #52, #48, #56, #54, #38, #64, #40, #50, #42, #58, #44, #60, #62 ) );
#135 = CARTESIAN_POINT( '', ( 0.000000000000000, 0.000000000000000, 0.000000000000000 ) );
#136 = DIRECTION( '', ( 0.000000000000000, 0.000000000000000, 1.00000000000000 ) );
#137 = DIRECTION( '', ( 1.00000000000000, 0.000000000000000, 0.000000000000000 ) );
#138 =  ( LENGTH_UNIT(  )NAMED_UNIT( #74 )SI_UNIT( .MILLI., .METRE. ) );
#139 = SURFACE_SIDE_STYLE( '', ( #190 ) );
#140 = EDGE_LOOP( '', ( #191 ) );
#141 = EDGE_LOOP( '', ( #192 ) );
#142 = AXIS2_PLACEMENT_3D( '', #193, #194, #195 );
#143 = SURFACE_SIDE_STYLE( '', ( #196 ) );
#144 = EDGE_LOOP( '', ( #197 ) );
#145 = EDGE_LOOP( '', ( #198 ) );
#146 = AXIS2_PLACEMENT_3D( '', #199, #200, #201 );
#147 = SURFACE_SIDE_STYLE( '', ( #202 ) );
#148 = EDGE_LOOP( '', ( #203, #204, #205, #206 ) );
#149 = AXIS2_PLACEMENT_3D( '', #207, #208, #209 );
#150 = SURFACE_SIDE_STYLE( '', ( #210 ) );
#151 = EDGE_LOOP( '', ( #211, #212, #213, #214 ) );
#152 = AXIS2_PLACEMENT_3D( '', #215, #216, #217 );
#153 = SURFACE_SIDE_STYLE( '', ( #218 ) );
#154 = EDGE_LOOP( '', ( #219 ) );
#155 = EDGE_LOOP( '', ( #220 ) );
#156 = AXIS2_PLACEMENT_3D( '', #221, #222, #223 );
#157 = SURFACE_SIDE_STYLE( '', ( #224 ) );
#158 = EDGE_LOOP( '', ( #225 ) );
#159 = EDGE_LOOP( '', ( #226, #227, #228, #229, #230, #231, #232, #233 ) );
#160 = AXIS2_PLACEMENT_3D( '', #234, #235, #236 );
#161 = SURFACE_SIDE_STYLE( '', ( #237 ) );
#162 = EDGE_LOOP( '', ( #238 ) );
#163 = AXIS2_PLACEMENT_3D( '', #239, #240, #241 );
#164 = SURFACE_SIDE_STYLE( '', ( #242 ) );
#165 = EDGE_LOOP( '', ( #243 ) );
#166 = AXIS2_PLACEMENT_3D( '', #244, #245, #246 );
#167 = SURFACE_SIDE_STYLE( '', ( #247 ) );
#168 = EDGE_LOOP( '', ( #248 ) );
#169 = EDGE_LOOP( '', ( #249 ) );
#170 = AXIS2_PLACEMENT_3D( '', #250, #251, #252 );
#171 = SURFACE_SIDE_STYLE( '', ( #253 ) );
#172 = EDGE_LOOP( '', ( #254 ) );
#173 = EDGE_LOOP( '', ( #255, #256, #257, #258 ) );
#174 = AXIS2_PLACEMENT_3D( '', #259, #260, #261 );
#175 = SURFACE_SIDE_STYLE( '', ( #262 ) );
#176 = EDGE_LOOP( '', ( #263, #264 ) );
#177 = AXIS2_PLACEMENT_3D( '', #265, #266, #267 );
#178 = SURFACE_SIDE_STYLE( '', ( #268 ) );
#179 = EDGE_LOOP( '', ( #269, #270 ) );
#180 = AXIS2_PLACEMENT_3D( '', #271, #272, #273 );
#181 = SURFACE_SIDE_STYLE( '', ( #274 ) );
#182 = EDGE_LOOP( '', ( #275 ) );
#183 = EDGE_LOOP( '', ( #276 ) );
#184 = AXIS2_PLACEMENT_3D( '', #277, #278, #279 );
#185 = SURFACE_SIDE_STYLE( '', ( #280 ) );
#186 = EDGE_LOOP( '', ( #281 ) );
#187 = EDGE_LOOP( '', ( #282 ) );
#188 = AXIS2_PLACEMENT_3D( '', #283, #284, #285 );
#190 = SURFACE_STYLE_FILL_AREA( #286 );
#191 = ORIENTED_EDGE( '', *, *, #287, .T. );
#192 = ORIENTED_EDGE( '', *, *, #288, .F. );
#193 = CARTESIAN_POINT( '', ( 0.000000000000000, 0.000000000000000, 18.8810000000000 ) );
#194 = DIRECTION( '', ( -0.000000000000000, 0.000000000000000, -1.00000000000000 ) );
#195 = DIRECTION( '', ( -1.00000000000000, 0.000000000000000, 0.000000000000000 ) );
#196 = SURFACE_STYLE_FILL_AREA( #289 );
#197 = ORIENTED_EDGE( '', *, *, #290, .T. );
#198 = ORIENTED_EDGE( '', *, *, #291, .F. );
#199 = CARTESIAN_POINT( '', ( 0.000000000000000, 0.000000000000000, -16.0000000000000 ) );
#200 = DIRECTION( '', ( -0.000000000000000, -0.000000000000000, -1.00000000000000 ) );
#201 = DIRECTION( '', ( 1.00000000000000, 0.000000000000000, 0.000000000000000 ) );
#202 = SURFACE_STYLE_FILL_AREA( #292 );
#203 = ORIENTED_EDGE( '', *, *, #293, .T. );
#204 = ORIENTED_EDGE( '', *, *, #294, .T. );
#205 = ORIENTED_EDGE( '', *, *, #295, .T. );
#206 = ORIENTED_EDGE( '', *, *, #296, .F. );
#207 = CARTESIAN_POINT( '', ( 13.5000000000000, -15.0000000000000, 10.8000000000000 ) );
#208 = DIRECTION( '', ( 1.00000000000000, 0.000000000000000, 1.60622544071926E-016 ) );
#209 = DIRECTION( '', ( 1.60622544071926E-016, 0.000000000000000, -1.00000000000000 ) );
#210 = SURFACE_STYLE_FILL_AREA( #297 );
#211 = ORIENTED_EDGE( '', *, *, #298, .T. );
#212 = ORIENTED_EDGE( '', *, *, #299, .F. );
#213 = ORIENTED_EDGE( '', *, *, #300, .T. );
#214 = ORIENTED_EDGE( '', *, *, #301, .T. );
#215 = CARTESIAN_POINT( '', ( -13.5000000000000, -15.0000000000000, 1.83697019872103E-016 ) );
#216 = DIRECTION( '', ( -1.00000000000000, 0.000000000000000, 0.000000000000000 ) );
#217 = DIRECTION( '', ( 0.000000000000000, 0.000000000000000, 1.00000000000000 ) );
#218 = SURFACE_STYLE_FILL_AREA( #302 );
#219 = ORIENTED_EDGE( '', *, *, #303, .T. );
#220 = ORIENTED_EDGE( '', *, *, #304, .F. );
#221 = CARTESIAN_POINT( '', ( 5.20417042793042E-015, 0.000000000000000, 19.1722069895800 ) );
#222 = DIRECTION( '', ( 0.000000000000000, 0.000000000000000, 1.00000000000000 ) );
#223 = DIRECTION( '', ( 1.00000000000000, 0.000000000000000, 0.000000000000000 ) );
#224 = SURFACE_STYLE_FILL_AREA( #305 );
#225 = ORIENTED_EDGE( '', *, *, #288, .T. );
#226 = ORIENTED_EDGE( '', *, *, #298, .F. );
#227 = ORIENTED_EDGE( '', *, *, #306, .F. );
#228 = ORIENTED_EDGE( '', *, *, #300, .F. );
#229 = ORIENTED_EDGE( '', *, *, #307, .T. );
#230 = ORIENTED_EDGE( '', *, *, #293, .F. );
#231 = ORIENTED_EDGE( '', *, *, #308, .F. );
#232 = ORIENTED_EDGE( '', *, *, #295, .F. );
#233 = ORIENTED_EDGE( '', *, *, #309, .T. );
#234 = CARTESIAN_POINT( '', ( 6.93889390390723E-015, 0.000000000000000, 23.6310000000000 ) );
#235 = DIRECTION( '', ( -0.000000000000000, -0.000000000000000, 1.00000000000000 ) );
#236 = DIRECTION( '', ( -1.00000000000000, 0.000000000000000, 0.000000000000000 ) );
#237 = SURFACE_STYLE_FILL_AREA( #310 );
#238 = ORIENTED_EDGE( '', *, *, #311, .T. );
#239 = CARTESIAN_POINT( '', ( 0.000000000000000, 0.000000000000000, -16.0000000000000 ) );
#240 = DIRECTION( '', ( 0.000000000000000, 0.000000000000000, 1.00000000000000 ) );
#241 = DIRECTION( '', ( 1.00000000000000, 0.000000000000000, 0.000000000000000 ) );
#242 = SURFACE_STYLE_FILL_AREA( #312 );
#243 = ORIENTED_EDGE( '', *, *, #304, .T. );
#244 = CARTESIAN_POINT( '', ( 0.000000000000000, 0.000000000000000, 27.0010000000000 ) );
#245 = DIRECTION( '', ( 0.000000000000000, 0.000000000000000, 1.00000000000000 ) );
#246 = DIRECTION( '', ( 1.00000000000000, 0.000000000000000, 0.000000000000000 ) );
#247 = SURFACE_STYLE_FILL_AREA( #313 );
#248 = ORIENTED_EDGE( '', *, *, #303, .F. );
#249 = ORIENTED_EDGE( '', *, *, #314, .F. );
#250 = CARTESIAN_POINT( '', ( 6.93889390390723E-015, 0.000000000000000, 23.6310000000000 ) );
#251 = DIRECTION( '', ( 0.000000000000000, 0.000000000000000, 1.00000000000000 ) );
#252 = DIRECTION( '', ( 1.00000000000000, 0.000000000000000, 0.000000000000000 ) );
#253 = SURFACE_STYLE_FILL_AREA( #315 );
#254 = ORIENTED_EDGE( '', *, *, #291, .T. );
#255 = ORIENTED_EDGE( '', *, *, #299, .T. );
#256 = ORIENTED_EDGE( '', *, *, #309, .F. );
#257 = ORIENTED_EDGE( '', *, *, #294, .F. );
#258 = ORIENTED_EDGE( '', *, *, #307, .F. );
#259 = CARTESIAN_POINT( '', ( 6.93889390390723E-015, 0.000000000000000, 0.000000000000000 ) );
#260 = DIRECTION( '', ( 0.000000000000000, 0.000000000000000, 1.00000000000000 ) );
#261 = DIRECTION( '', ( 1.00000000000000, 0.000000000000000, 0.000000000000000 ) );
#262 = SURFACE_STYLE_FILL_AREA( #316 );
#263 = ORIENTED_EDGE( '', *, *, #296, .T. );
#264 = ORIENTED_EDGE( '', *, *, #308, .T. );
#265 = CARTESIAN_POINT( '', ( 15.0000000000000, -15.0000000000000, 10.8000000000000 ) );
#266 = DIRECTION( '', ( 0.000000000000000, 0.000000000000000, -1.00000000000000 ) );
#267 = DIRECTION( '', ( -1.00000000000000, 0.000000000000000, 0.000000000000000 ) );
#268 = SURFACE_STYLE_FILL_AREA( #317 );
#269 = ORIENTED_EDGE( '', *, *, #306, .T. );
#270 = ORIENTED_EDGE( '', *, *, #301, .F. );
#271 = CARTESIAN_POINT( '', ( -13.5000000000000, -15.0000000000000, 10.8000000000000 ) );
#272 = DIRECTION( '', ( 0.000000000000000, 0.000000000000000, -1.00000000000000 ) );
#273 = DIRECTION( '', ( -1.00000000000000, 0.000000000000000, 0.000000000000000 ) );
#274 = SURFACE_STYLE_FILL_AREA( #318 );
#275 = ORIENTED_EDGE( '', *, *, #311, .F. );
#276 = ORIENTED_EDGE( '', *, *, #290, .F. );
#277 = CARTESIAN_POINT( '', ( 0.000000000000000, 0.000000000000000, -14.0000000000000 ) );
#278 = DIRECTION( '', ( -0.000000000000000, -0.000000000000000, 1.00000000000000 ) );
#279 = DIRECTION( '', ( 1.00000000000000, 0.000000000000000, 0.000000000000000 ) );
#280 = SURFACE_STYLE_FILL_AREA( #319 );
#281 = ORIENTED_EDGE( '', *, *, #314, .T. );
#282 = ORIENTED_EDGE( '', *, *, #287, .F. );
#283 = CARTESIAN_POINT( '', ( 0.000000000000000, 0.000000000000000, 19.8744301395928 ) );
#284 = DIRECTION( '', ( -0.000000000000000, 0.000000000000000, -1.00000000000000 ) );
#285 = DIRECTION( '', ( -1.00000000000000, 0.000000000000000, 0.000000000000000 ) );
#286 = FILL_AREA_STYLE( '', ( #320 ) );
#287 = EDGE_CURVE( '', #321, #321, #322, .T. );
#288 = EDGE_CURVE( '', #323, #323, #324, .T. );
#289 = FILL_AREA_STYLE( '', ( #325 ) );
#290 = EDGE_CURVE( '', #326, #326, #327, .T. );
#291 = EDGE_CURVE( '', #328, #328, #329, .T. );
#292 = FILL_AREA_STYLE( '', ( #330 ) );
#293 = EDGE_CURVE( '', #331, #332, #333, .T. );
#294 = EDGE_CURVE( '', #332, #334, #335, .T. );
#295 = EDGE_CURVE( '', #334, #336, #337, .F. );
#296 = EDGE_CURVE( '', #331, #336, #338, .T. );
#297 = FILL_AREA_STYLE( '', ( #339 ) );
#298 = EDGE_CURVE( '', #340, #341, #342, .T. );
#299 = EDGE_CURVE( '', #343, #341, #344, .T. );
#300 = EDGE_CURVE( '', #343, #345, #346, .F. );
#301 = EDGE_CURVE( '', #345, #340, #347, .T. );
#302 = FILL_AREA_STYLE( '', ( #348 ) );
#303 = EDGE_CURVE( '', #349, #349, #350, .T. );
#304 = EDGE_CURVE( '', #351, #351, #352, .T. );
#305 = FILL_AREA_STYLE( '', ( #353 ) );
#306 = EDGE_CURVE( '', #345, #340, #354, .T. );
#307 = EDGE_CURVE( '', #343, #332, #355, .T. );
#308 = EDGE_CURVE( '', #336, #331, #356, .T. );
#309 = EDGE_CURVE( '', #334, #341, #357, .T. );
#310 = FILL_AREA_STYLE( '', ( #358 ) );
#311 = EDGE_CURVE( '', #359, #359, #360, .F. );
#312 = FILL_AREA_STYLE( '', ( #361 ) );
#313 = FILL_AREA_STYLE( '', ( #362 ) );
#314 = EDGE_CURVE( '', #363, #363, #364, .T. );
#315 = FILL_AREA_STYLE( '', ( #365 ) );
#316 = FILL_AREA_STYLE( '', ( #366 ) );
#317 = FILL_AREA_STYLE( '', ( #367 ) );
#318 = FILL_AREA_STYLE( '', ( #368 ) );
#319 = FILL_AREA_STYLE( '', ( #369 ) );
#320 = FILL_AREA_STYLE_COLOUR( '', #370 );
#321 = VERTEX_POINT( '', #371 );
#322 = CIRCLE( '', #372, 14.0065698604072 );
#323 = VERTEX_POINT( '', #373 );
#324 = CIRCLE( '', #374, 15.0000000000000 );
#325 = FILL_AREA_STYLE_COLOUR( '', #375 );
#326 = VERTEX_POINT( '', #376 );
#327 = CIRCLE( '', #377, 8.00000000000000 );
#328 = VERTEX_POINT( '', #378 );
#329 = CIRCLE( '', #379, 8.00000000000000 );
#330 = FILL_AREA_STYLE_COLOUR( '', #380 );
#331 = VERTEX_POINT( '', #381 );
#332 = VERTEX_POINT( '', #382 );
#333 = LINE( '', #383, #384 );
#334 = VERTEX_POINT( '', #385 );
#335 = LINE( '', #386, #387 );
#336 = VERTEX_POINT( '', #388 );
#337 = LINE( '', #389, #390 );
#338 = LINE( '', #391, #392 );
#339 = FILL_AREA_STYLE_COLOUR( '', #393 );
#340 = VERTEX_POINT( '', #394 );
#341 = VERTEX_POINT( '', #395 );
#342 = LINE( '', #396, #397 );
#343 = VERTEX_POINT( '', #398 );
#344 = LINE( '', #399, #400 );
#345 = VERTEX_POINT( '', #401 );
#346 = LINE( '', #402, #403 );
#347 = LINE( '', #404, #405 );
#348 = FILL_AREA_STYLE_COLOUR( '', #406 );
#349 = VERTEX_POINT( '', #407 );
#350 = CIRCLE( '', #408, 11.8915585559770 );
#351 = VERTEX_POINT( '', #409 );
#352 = CIRCLE( '', #410, 10.0000000000000 );
#353 = FILL_AREA_STYLE_COLOUR( '', #411 );
#354 = CIRCLE( '', #412, 15.0000000000000 );
#355 = CIRCLE( '', #413, 15.0000000000000 );
#356 = CIRCLE( '', #414, 15.0000000000000 );
#357 = CIRCLE( '', #415, 15.0000000000000 );
#358 = FILL_AREA_STYLE_COLOUR( '', #416 );
#359 = VERTEX_POINT( '', #417 );
#360 = CIRCLE( '', #418, 6.00000000000000 );
#361 = FILL_AREA_STYLE_COLOUR( '', #419 );
#362 = FILL_AREA_STYLE_COLOUR( '', #420 );
#363 = VERTEX_POINT( '', #421 );
#364 = CIRCLE( '', #422, 13.0000000000000 );
#365 = FILL_AREA_STYLE_COLOUR( '', #423 );
#366 = FILL_AREA_STYLE_COLOUR( '', #424 );
#367 = FILL_AREA_STYLE_COLOUR( '', #425 );
#368 = FILL_AREA_STYLE_COLOUR( '', #426 );
#369 = FILL_AREA_STYLE_COLOUR( '', #427 );
#370 = COLOUR_RGB( '', 0.200000002980232, 0.200000002980232, 0.200000002980232 );
#371 = CARTESIAN_POINT( '', ( -14.0065698604072, 0.000000000000000, 19.8744301395928 ) );
#372 = AXIS2_PLACEMENT_3D( '', #428, #429, #430 );
#373 = CARTESIAN_POINT( '', ( -15.0000000000000, 0.000000000000000, 18.8810000000000 ) );
#374 = AXIS2_PLACEMENT_3D( '', #431, #432, #433 );
#375 = COLOUR_RGB( '', 0.200000002980232, 0.200000002980232, 0.200000002980232 );
#376 = CARTESIAN_POINT( '', ( 8.00000000000000, 0.000000000000000, -14.0000000000000 ) );
#377 = AXIS2_PLACEMENT_3D( '', #434, #435, #436 );
#378 = CARTESIAN_POINT( '', ( 8.00000000000000, 0.000000000000000, 0.000000000000000 ) );
#379 = AXIS2_PLACEMENT_3D( '', #437, #438, #439 );
#380 = COLOUR_RGB( '', 0.200000002980232, 0.200000002980232, 0.200000002980232 );
#381 = CARTESIAN_POINT( '', ( 13.5000000000000, -6.53834841531103, 10.8000000000000 ) );
#382 = CARTESIAN_POINT( '', ( 13.5000000000000, -6.53834841531102, 0.000000000000000 ) );
#383 = CARTESIAN_POINT( '', ( 13.5000000000000, -6.53834841531103, 23.6310000000000 ) );
#384 = VECTOR( '', #440, 1000.00000000000 );
#385 = CARTESIAN_POINT( '', ( 13.5000000000000, 6.53834841531102, 0.000000000000000 ) );
#386 = CARTESIAN_POINT( '', ( 13.5000000000000, -15.0000000000000, 0.000000000000000 ) );
#387 = VECTOR( '', #441, 1000.00000000000 );
#388 = CARTESIAN_POINT( '', ( 13.5000000000000, 6.53834841531103, 10.8000000000000 ) );
#389 = CARTESIAN_POINT( '', ( 13.5000000000000, 6.53834841531103, 23.6310000000000 ) );
#390 = VECTOR( '', #442, 1000.00000000000 );
#391 = CARTESIAN_POINT( '', ( 13.5000000000000, -15.0000000000000, 10.8000000000000 ) );
#392 = VECTOR( '', #443, 1000.00000000000 );
#393 = COLOUR_RGB( '', 0.200000002980232, 0.200000002980232, 0.200000002980232 );
#394 = CARTESIAN_POINT( '', ( -13.5000000000000, 6.53834841531100, 10.8000000000000 ) );
#395 = CARTESIAN_POINT( '', ( -13.5000000000000, 6.53834841531100, 0.000000000000000 ) );
#396 = CARTESIAN_POINT( '', ( -13.5000000000000, 6.53834841531100, 23.6310000000000 ) );
#397 = VECTOR( '', #444, 1000.00000000000 );
#398 = CARTESIAN_POINT( '', ( -13.5000000000000, -6.53834841531100, 1.83697019872103E-016 ) );
#399 = CARTESIAN_POINT( '', ( -13.5000000000000, -15.0000000000000, 1.83697019872103E-016 ) );
#400 = VECTOR( '', #445, 1000.00000000000 );
#401 = CARTESIAN_POINT( '', ( -13.5000000000000, -6.53834841531100, 10.8000000000000 ) );
#402 = CARTESIAN_POINT( '', ( -13.5000000000000, -6.53834841531100, 23.6310000000000 ) );
#403 = VECTOR( '', #446, 1000.00000000000 );
#404 = CARTESIAN_POINT( '', ( -13.5000000000000, -15.0000000000000, 10.8000000000000 ) );
#405 = VECTOR( '', #447, 1000.00000000000 );
#406 = COLOUR_RGB( '', 1.00000000000000, 1.00000000000000, 1.00000000000000 );
#407 = CARTESIAN_POINT( '', ( 11.8915585559770, 0.000000000000000, 23.6310000000000 ) );
#408 = AXIS2_PLACEMENT_3D( '', #448, #449, #450 );
#409 = CARTESIAN_POINT( '', ( 10.0000000000000, 0.000000000000000, 27.0010000000000 ) );
#410 = AXIS2_PLACEMENT_3D( '', #451, #452, #453 );
#411 = COLOUR_RGB( '', 0.200000002980232, 0.200000002980232, 0.200000002980232 );
#412 = AXIS2_PLACEMENT_3D( '', #454, #455, #456 );
#413 = AXIS2_PLACEMENT_3D( '', #457, #458, #459 );
#414 = AXIS2_PLACEMENT_3D( '', #460, #461, #462 );
#415 = AXIS2_PLACEMENT_3D( '', #463, #464, #465 );
#416 = COLOUR_RGB( '', 0.200000002980232, 0.200000002980232, 0.200000002980232 );
#417 = CARTESIAN_POINT( '', ( 6.00000000000000, 0.000000000000000, -16.0000000000000 ) );
#418 = AXIS2_PLACEMENT_3D( '', #466, #467, #468 );
#419 = COLOUR_RGB( '', 1.00000000000000, 1.00000000000000, 1.00000000000000 );
#420 = COLOUR_RGB( '', 0.200000002980232, 0.200000002980232, 0.200000002980232 );
#421 = CARTESIAN_POINT( '', ( -13.0000000000000, 0.000000000000000, 23.6310000000000 ) );
#422 = AXIS2_PLACEMENT_3D( '', #469, #470, #471 );
#423 = COLOUR_RGB( '', 0.200000002980232, 0.200000002980232, 0.200000002980232 );
#424 = COLOUR_RGB( '', 0.200000002980232, 0.200000002980232, 0.200000002980232 );
#425 = COLOUR_RGB( '', 0.200000002980232, 0.200000002980232, 0.200000002980232 );
#426 = COLOUR_RGB( '', 0.200000002980232, 0.200000002980232, 0.200000002980232 );
#427 = COLOUR_RGB( '', 0.200000002980232, 0.200000002980232, 0.200000002980232 );
#428 = CARTESIAN_POINT( '', ( 0.000000000000000, 0.000000000000000, 19.8744301395928 ) );
#429 = DIRECTION( '', ( 0.000000000000000, 0.000000000000000, -1.00000000000000 ) );
#430 = DIRECTION( '', ( -1.00000000000000, 0.000000000000000, 0.000000000000000 ) );
#431 = CARTESIAN_POINT( '', ( 0.000000000000000, 0.000000000000000, 18.8810000000000 ) );
#432 = DIRECTION( '', ( 0.000000000000000, 0.000000000000000, -1.00000000000000 ) );
#433 = DIRECTION( '', ( -1.00000000000000, 0.000000000000000, 0.000000000000000 ) );
#434 = CARTESIAN_POINT( '', ( 0.000000000000000, 0.000000000000000, -14.0000000000000 ) );
#435 = DIRECTION( '', ( 0.000000000000000, 0.000000000000000, 1.00000000000000 ) );
#436 = DIRECTION( '', ( 1.00000000000000, 0.000000000000000, 0.000000000000000 ) );
#437 = CARTESIAN_POINT( '', ( 0.000000000000000, 0.000000000000000, 0.000000000000000 ) );
#438 = DIRECTION( '', ( 0.000000000000000, 0.000000000000000, 1.00000000000000 ) );
#439 = DIRECTION( '', ( 1.00000000000000, 0.000000000000000, 0.000000000000000 ) );
#440 = DIRECTION( '', ( 0.000000000000000, 0.000000000000000, -1.00000000000000 ) );
#441 = DIRECTION( '', ( 0.000000000000000, 1.00000000000000, 0.000000000000000 ) );
#442 = DIRECTION( '', ( 0.000000000000000, 0.000000000000000, -1.00000000000000 ) );
#443 = DIRECTION( '', ( 0.000000000000000, 1.00000000000000, 0.000000000000000 ) );
#444 = DIRECTION( '', ( 0.000000000000000, 0.000000000000000, -1.00000000000000 ) );
#445 = DIRECTION( '', ( 0.000000000000000, 1.00000000000000, 0.000000000000000 ) );
#446 = DIRECTION( '', ( 0.000000000000000, 0.000000000000000, -1.00000000000000 ) );
#447 = DIRECTION( '', ( 0.000000000000000, 1.00000000000000, 0.000000000000000 ) );
#448 = CARTESIAN_POINT( '', ( 5.20417042793042E-015, 0.000000000000000, 23.6310000000000 ) );
#449 = DIRECTION( '', ( 0.000000000000000, 0.000000000000000, 1.00000000000000 ) );
#450 = DIRECTION( '', ( 1.00000000000000, 0.000000000000000, 0.000000000000000 ) );
#451 = CARTESIAN_POINT( '', ( 0.000000000000000, 0.000000000000000, 27.0010000000000 ) );
#452 = DIRECTION( '', ( 0.000000000000000, 0.000000000000000, 1.00000000000000 ) );
#453 = DIRECTION( '', ( 1.00000000000000, 0.000000000000000, 0.000000000000000 ) );
#454 = CARTESIAN_POINT( '', ( 6.93889390390723E-015, 0.000000000000000, 10.8000000000000 ) );
#455 = DIRECTION( '', ( 0.000000000000000, 0.000000000000000, -1.00000000000000 ) );
#456 = DIRECTION( '', ( -1.00000000000000, 0.000000000000000, 0.000000000000000 ) );
#457 = CARTESIAN_POINT( '', ( 6.93889390390723E-015, 0.000000000000000, 0.000000000000000 ) );
#458 = DIRECTION( '', ( 0.000000000000000, 0.000000000000000, 1.00000000000000 ) );
#459 = DIRECTION( '', ( 1.00000000000000, 0.000000000000000, 0.000000000000000 ) );
#460 = CARTESIAN_POINT( '', ( 6.93889390390723E-015, 0.000000000000000, 10.8000000000000 ) );
#461 = DIRECTION( '', ( 0.000000000000000, 0.000000000000000, -1.00000000000000 ) );
#462 = DIRECTION( '', ( -1.00000000000000, 0.000000000000000, 0.000000000000000 ) );
#463 = CARTESIAN_POINT( '', ( 6.93889390390723E-015, 0.000000000000000, 0.000000000000000 ) );
#464 = DIRECTION( '', ( 0.000000000000000, 0.000000000000000, 1.00000000000000 ) );
#465 = DIRECTION( '', ( 1.00000000000000, 0.000000000000000, 0.000000000000000 ) );
#466 = CARTESIAN_POINT( '', ( 0.000000000000000, 0.000000000000000, -16.0000000000000 ) );
#467 = DIRECTION( '', ( 0.000000000000000, 0.000000000000000, 1.00000000000000 ) );
#468 = DIRECTION( '', ( 1.00000000000000, 0.000000000000000, 0.000000000000000 ) );
#469 = CARTESIAN_POINT( '', ( 0.000000000000000, 0.000000000000000, 23.6310000000000 ) );
#470 = DIRECTION( '', ( 0.000000000000000, 0.000000000000000, -1.00000000000000 ) );
#471 = DIRECTION( '', ( -1.00000000000000, 0.000000000000000, 0.000000000000000 ) );
ENDSEC;
END-ISO-10303-21;
