ISO-10303-21;
HEADER;
FILE_DESCRIPTION( ( 'Unknown' ), '1' );
FILE_NAME( 'f:/¼È¦s/SU-3D/SU02-3D/SU02-1640.stp', 'Unknown', ( 'Unknown' ), ( 'Unknown' ), 'XStep 1.0', 'Unknown', '  ' );
FILE_SCHEMA( ( 'CONFIG_CONTROL_DESIGN' ) );
ENDSEC;
DATA;
#1 = DESIGN_CONTEXT( '', #27, 'design' );
#2 = APPLICATION_PROTOCOL_DEFINITION( 'INTERNATIONAL STANDARD', 'config_control_design', 1994, #27 );
#3 = PRODUCT_CATEGORY_RELATIONSHIP( 'NONE', 'NONE', #28, #29 );
#4 = DATE_AND_TIME( #30, #31 );
#5 = DATE_TIME_ROLE( 'creation_date' );
#6 = DATE_TIME_ROLE( 'classification_date' );
#7 = PERSON_AND_ORGANIZATION_ROLE( 'creator' );
#8 = PERSON_AND_ORGANIZATION_ROLE( 'design_supplier' );
#9 = PERSON_AND_ORGANIZATION_ROLE( 'classification_officer' );
#10 = PERSON_AND_ORGANIZATION_ROLE( 'design_owner' );
#11 = APPROVAL_PERSON_ORGANIZATION( #32, #33, #34 );
#12 = APPROVAL_DATE_TIME( #4, #33 );
#13 = CC_DESIGN_APPROVAL( #33, ( #35, #36, #37 ) );
#14 = CC_DESIGN_DATE_AND_TIME_ASSIGNMENT( #4, #5, ( #37 ) );
#15 = CC_DESIGN_DATE_AND_TIME_ASSIGNMENT( #4, #6, ( #35 ) );
#16 = CC_DESIGN_PERSON_AND_ORGANIZATION_ASSIGNMENT( #32, #10, ( #38 ) );
#17 = CC_DESIGN_PERSON_AND_ORGANIZATION_ASSIGNMENT( #32, #7, ( #37 ) );
#18 = CC_DESIGN_PERSON_AND_ORGANIZATION_ASSIGNMENT( #32, #7, ( #36 ) );
#19 = CC_DESIGN_PERSON_AND_ORGANIZATION_ASSIGNMENT( #32, #8, ( #36 ) );
#20 = CC_DESIGN_SECURITY_CLASSIFICATION( #35, ( #36 ) );
#21 = CC_DESIGN_PERSON_AND_ORGANIZATION_ASSIGNMENT( #32, #9, ( #35 ) );
#22 = SHAPE_DEFINITION_REPRESENTATION( #39, #40 );
#23 =  ( GEOMETRIC_REPRESENTATION_CONTEXT( 3 )GLOBAL_UNCERTAINTY_ASSIGNED_CONTEXT( ( #43 ) )GLOBAL_UNIT_ASSIGNED_CONTEXT( ( #45, #46, #47 ) )REPRESENTATION_CONTEXT( 'NONE', 'WORKSPACE' ) );
#27 = APPLICATION_CONTEXT( 'CONFIGURATION CONTROLLED 3D DESIGNS OF MECHANICAL PARTS AND ASSEMBLIES' );
#28 = PRODUCT_CATEGORY( 'part', 'NONE' );
#29 = PRODUCT_RELATED_PRODUCT_CATEGORY( 'detail', ' ', ( #38 ) );
#30 = CALENDAR_DATE( 2009, 9, 10 );
#31 = LOCAL_TIME( 10, 20, 33.0000000000000, #49 );
#32 = PERSON_AND_ORGANIZATION( #50, #51 );
#33 = APPROVAL( #52, 'SOLID MODEL' );
#34 = APPROVAL_ROLE( 'APPROVED' );
#35 = SECURITY_CLASSIFICATION( '', '', #53 );
#36 = PRODUCT_DEFINITION_FORMATION_WITH_SPECIFIED_SOURCE( ' ', 'NONE', #38, .NOT_KNOWN. );
#37 = PRODUCT_DEFINITION( 'NONE', 'NONE', #36, #1 );
#38 = PRODUCT( '1', '1', 'PART-1-DESC', ( #54 ) );
#39 = PRODUCT_DEFINITION_SHAPE( 'NONE', 'NONE', #37 );
#40 = ADVANCED_BREP_SHAPE_REPRESENTATION( '1', ( #55, #56 ), #23 );
#43 = UNCERTAINTY_MEASURE_WITH_UNIT( LENGTH_MEASURE( 0.00100000000000000 ), #45, '', '' );
#45 =  ( CONVERSION_BASED_UNIT( 'MILLIMETRE', #59 )LENGTH_UNIT(  )NAMED_UNIT( #62 ) );
#46 =  ( NAMED_UNIT( #64 )PLANE_ANGLE_UNIT(  )SI_UNIT( $, .RADIAN. ) );
#47 =  ( NAMED_UNIT( #64 )SOLID_ANGLE_UNIT(  )SI_UNIT( $, .STERADIAN. ) );
#49 = COORDINATED_UNIVERSAL_TIME_OFFSET( 8, 0, .AHEAD. );
#50 = PERSON( '', 'UNSPECIFIED', $, $, $, $ );
#51 = ORGANIZATION( 'UNSPECIFIED', 'UNSPECIFIED', 'UNSPECIFIED' );
#52 = APPROVAL_STATUS( 'approved' );
#53 = SECURITY_CLASSIFICATION_LEVEL( 'unclassified' );
#54 = MECHANICAL_CONTEXT( '', #27, 'mechanical' );
#55 = MANIFOLD_SOLID_BREP( '1', #70 );
#56 = AXIS2_PLACEMENT_3D( '', #71, #72, #73 );
#59 = LENGTH_MEASURE_WITH_UNIT( LENGTH_MEASURE( 1.00000000000000 ), #74 );
#62 = DIMENSIONAL_EXPONENTS( 1.00000000000000, 0.000000000000000, 0.000000000000000, 0.000000000000000, 0.000000000000000, 0.000000000000000, 0.000000000000000 );
#64 = DIMENSIONAL_EXPONENTS( 0.000000000000000, 0.000000000000000, 0.000000000000000, 0.000000000000000, 0.000000000000000, 0.000000000000000, 0.000000000000000 );
#70 = CLOSED_SHELL( '', ( #75, #76, #77, #78, #79, #80, #81, #82, #83, #84 ) );
#71 = CARTESIAN_POINT( '', ( 0.000000000000000, 0.000000000000000, 0.000000000000000 ) );
#72 = DIRECTION( '', ( 0.000000000000000, 0.000000000000000, 1.00000000000000 ) );
#73 = DIRECTION( '', ( 1.00000000000000, 0.000000000000000, 0.000000000000000 ) );
#74 =  ( NAMED_UNIT( #62 )LENGTH_UNIT(  )SI_UNIT( .MILLI., .METRE. ) );
#75 = ADVANCED_FACE( '', ( #86, #87 ), #88, .T. );
#76 = ADVANCED_FACE( '', ( #89, #90 ), #91, .T. );
#77 = ADVANCED_FACE( '', ( #92, #93 ), #94, .T. );
#78 = ADVANCED_FACE( '', ( #95, #96 ), #97, .F. );
#79 = ADVANCED_FACE( '', ( #98, #99 ), #100, .F. );
#80 = ADVANCED_FACE( '', ( #101, #102 ), #103, .F. );
#81 = ADVANCED_FACE( '', ( #104, #105 ), #106, .F. );
#82 = ADVANCED_FACE( '', ( #107, #108 ), #109, .T. );
#83 = ADVANCED_FACE( '', ( #110 ), #111, .F. );
#84 = ADVANCED_FACE( '', ( #112, #113 ), #114, .F. );
#86 = FACE_OUTER_BOUND( '', #115, .T. );
#87 = FACE_OUTER_BOUND( '', #116, .T. );
#88 = CYLINDRICAL_SURFACE( '', #117, 25.0000000000000 );
#89 = FACE_OUTER_BOUND( '', #118, .T. );
#90 = FACE_OUTER_BOUND( '', #119, .T. );
#91 = TOROIDAL_SURFACE( '', #120, 24.0000000000000, 1.00000000000000 );
#92 = FACE_OUTER_BOUND( '', #121, .T. );
#93 = FACE_OUTER_BOUND( '', #122, .T. );
#94 = TOROIDAL_SURFACE( '', #123, 24.0000000000000, 1.00000000000000 );
#95 = FACE_BOUND( '', #124, .T. );
#96 = FACE_OUTER_BOUND( '', #125, .T. );
#97 = PLANE( '', #126 );
#98 = FACE_OUTER_BOUND( '', #127, .T. );
#99 = FACE_OUTER_BOUND( '', #128, .T. );
#100 = CYLINDRICAL_SURFACE( '', #129, 13.0000000000000 );
#101 = FACE_OUTER_BOUND( '', #130, .T. );
#102 = FACE_OUTER_BOUND( '', #131, .T. );
#103 = CYLINDRICAL_SURFACE( '', #132, 9.00000000000000 );
#104 = FACE_OUTER_BOUND( '', #133, .T. );
#105 = FACE_BOUND( '', #134, .T. );
#106 = CONICAL_SURFACE( '', #135, 9.00000000000000, 0.785398163397448 );
#107 = FACE_OUTER_BOUND( '', #136, .T. );
#108 = FACE_BOUND( '', #137, .T. );
#109 = PLANE( '', #138 );
#110 = FACE_OUTER_BOUND( '', #139, .T. );
#111 = PLANE( '', #140 );
#112 = FACE_BOUND( '', #141, .T. );
#113 = FACE_OUTER_BOUND( '', #142, .T. );
#114 = CONICAL_SURFACE( '', #143, 14.0000000000000, 0.785398163397448 );
#115 = EDGE_LOOP( '', ( #144 ) );
#116 = EDGE_LOOP( '', ( #145 ) );
#117 = AXIS2_PLACEMENT_3D( '', #146, #147, #148 );
#118 = EDGE_LOOP( '', ( #149 ) );
#119 = EDGE_LOOP( '', ( #150 ) );
#120 = AXIS2_PLACEMENT_3D( '', #151, #152, #153 );
#121 = EDGE_LOOP( '', ( #154 ) );
#122 = EDGE_LOOP( '', ( #155 ) );
#123 = AXIS2_PLACEMENT_3D( '', #156, #157, #158 );
#124 = EDGE_LOOP( '', ( #159 ) );
#125 = EDGE_LOOP( '', ( #160 ) );
#126 = AXIS2_PLACEMENT_3D( '', #161, #162, #163 );
#127 = EDGE_LOOP( '', ( #164 ) );
#128 = EDGE_LOOP( '', ( #165 ) );
#129 = AXIS2_PLACEMENT_3D( '', #166, #167, #168 );
#130 = EDGE_LOOP( '', ( #169 ) );
#131 = EDGE_LOOP( '', ( #170 ) );
#132 = AXIS2_PLACEMENT_3D( '', #171, #172, #173 );
#133 = EDGE_LOOP( '', ( #174 ) );
#134 = EDGE_LOOP( '', ( #175 ) );
#135 = AXIS2_PLACEMENT_3D( '', #176, #177, #178 );
#136 = EDGE_LOOP( '', ( #179 ) );
#137 = EDGE_LOOP( '', ( #180 ) );
#138 = AXIS2_PLACEMENT_3D( '', #181, #182, #183 );
#139 = EDGE_LOOP( '', ( #184, #185 ) );
#140 = AXIS2_PLACEMENT_3D( '', #186, #187, #188 );
#141 = EDGE_LOOP( '', ( #189 ) );
#142 = EDGE_LOOP( '', ( #190 ) );
#143 = AXIS2_PLACEMENT_3D( '', #191, #192, #193 );
#144 = ORIENTED_EDGE( '', *, *, #194, .T. );
#145 = ORIENTED_EDGE( '', *, *, #195, .T. );
#146 = CARTESIAN_POINT( '', ( 0.000000000000000, 0.000000000000000, 40.0000000000000 ) );
#147 = DIRECTION( '', ( -0.000000000000000, -0.000000000000000, 1.00000000000000 ) );
#148 = DIRECTION( '', ( -1.00000000000000, 0.000000000000000, 0.000000000000000 ) );
#149 = ORIENTED_EDGE( '', *, *, #194, .F. );
#150 = ORIENTED_EDGE( '', *, *, #196, .F. );
#151 = CARTESIAN_POINT( '', ( 0.000000000000000, 0.000000000000000, 1.00000000000000 ) );
#152 = DIRECTION( '', ( 0.000000000000000, 0.000000000000000, -1.00000000000000 ) );
#153 = DIRECTION( '', ( -1.00000000000000, 0.000000000000000, 0.000000000000000 ) );
#154 = ORIENTED_EDGE( '', *, *, #197, .F. );
#155 = ORIENTED_EDGE( '', *, *, #195, .F. );
#156 = CARTESIAN_POINT( '', ( 0.000000000000000, 0.000000000000000, 39.0000000000000 ) );
#157 = DIRECTION( '', ( 0.000000000000000, 0.000000000000000, -1.00000000000000 ) );
#158 = DIRECTION( '', ( -1.00000000000000, 0.000000000000000, 0.000000000000000 ) );
#159 = ORIENTED_EDGE( '', *, *, #198, .T. );
#160 = ORIENTED_EDGE( '', *, *, #199, .T. );
#161 = CARTESIAN_POINT( '', ( 0.000000000000000, -10.0000000000000, 22.0000000000000 ) );
#162 = DIRECTION( '', ( 0.000000000000000, 0.000000000000000, -1.00000000000000 ) );
#163 = DIRECTION( '', ( -1.00000000000000, 0.000000000000000, 0.000000000000000 ) );
#164 = ORIENTED_EDGE( '', *, *, #200, .T. );
#165 = ORIENTED_EDGE( '', *, *, #199, .F. );
#166 = CARTESIAN_POINT( '', ( 0.000000000000000, -10.0000000000000, 40.0000000000000 ) );
#167 = DIRECTION( '', ( -0.000000000000000, -0.000000000000000, 1.00000000000000 ) );
#168 = DIRECTION( '', ( 0.000000000000000, -1.00000000000000, 0.000000000000000 ) );
#169 = ORIENTED_EDGE( '', *, *, #201, .T. );
#170 = ORIENTED_EDGE( '', *, *, #198, .F. );
#171 = CARTESIAN_POINT( '', ( 0.000000000000000, -10.0000000000000, 22.0000000000000 ) );
#172 = DIRECTION( '', ( -0.000000000000000, -0.000000000000000, 1.00000000000000 ) );
#173 = DIRECTION( '', ( 0.000000000000000, -1.00000000000000, 0.000000000000000 ) );
#174 = ORIENTED_EDGE( '', *, *, #202, .F. );
#175 = ORIENTED_EDGE( '', *, *, #201, .F. );
#176 = CARTESIAN_POINT( '', ( 0.000000000000000, -10.0000000000000, 1.00000000000000 ) );
#177 = DIRECTION( '', ( -0.000000000000000, 0.000000000000000, -1.00000000000000 ) );
#178 = DIRECTION( '', ( -1.00000000000000, 0.000000000000000, 0.000000000000000 ) );
#179 = ORIENTED_EDGE( '', *, *, #196, .T. );
#180 = ORIENTED_EDGE( '', *, *, #202, .T. );
#181 = CARTESIAN_POINT( '', ( 0.000000000000000, 0.000000000000000, 0.000000000000000 ) );
#182 = DIRECTION( '', ( 0.000000000000000, 0.000000000000000, -1.00000000000000 ) );
#183 = DIRECTION( '', ( -1.00000000000000, 0.000000000000000, 0.000000000000000 ) );
#184 = ORIENTED_EDGE( '', *, *, #203, .T. );
#185 = ORIENTED_EDGE( '', *, *, #197, .T. );
#186 = CARTESIAN_POINT( '', ( 0.000000000000000, 0.000000000000000, 40.0000000000000 ) );
#187 = DIRECTION( '', ( 0.000000000000000, 0.000000000000000, -1.00000000000000 ) );
#188 = DIRECTION( '', ( -1.00000000000000, 0.000000000000000, 0.000000000000000 ) );
#189 = ORIENTED_EDGE( '', *, *, #200, .F. );
#190 = ORIENTED_EDGE( '', *, *, #203, .F. );
#191 = CARTESIAN_POINT( '', ( 0.000000000000000, -10.0000000000000, 40.0000000000000 ) );
#192 = DIRECTION( '', ( -0.000000000000000, -0.000000000000000, 1.00000000000000 ) );
#193 = DIRECTION( '', ( 1.00000000000000, 0.000000000000000, 0.000000000000000 ) );
#194 = EDGE_CURVE( '', #204, #204, #205, .F. );
#195 = EDGE_CURVE( '', #206, #206, #207, .T. );
#196 = EDGE_CURVE( '', #208, #208, #209, .T. );
#197 = EDGE_CURVE( '', #210, #210, #211, .F. );
#198 = EDGE_CURVE( '', #212, #212, #213, .T. );
#199 = EDGE_CURVE( '', #214, #214, #215, .T. );
#200 = EDGE_CURVE( '', #216, #216, #217, .F. );
#201 = EDGE_CURVE( '', #218, #218, #219, .T. );
#202 = EDGE_CURVE( '', #220, #220, #221, .F. );
#203 = EDGE_CURVE( '', #210, #210, #222, .T. );
#204 = VERTEX_POINT( '', #223 );
#205 = CIRCLE( '', #224, 25.0000000000000 );
#206 = VERTEX_POINT( '', #225 );
#207 = CIRCLE( '', #226, 25.0000000000000 );
#208 = VERTEX_POINT( '', #227 );
#209 = CIRCLE( '', #228, 24.0000000000000 );
#210 = VERTEX_POINT( '', #229 );
#211 = CIRCLE( '', #230, 24.0000000000000 );
#212 = VERTEX_POINT( '', #231 );
#213 = CIRCLE( '', #232, 9.00000000000000 );
#214 = VERTEX_POINT( '', #233 );
#215 = CIRCLE( '', #234, 13.0000000000000 );
#216 = VERTEX_POINT( '', #235 );
#217 = CIRCLE( '', #236, 13.0000000000000 );
#218 = VERTEX_POINT( '', #237 );
#219 = CIRCLE( '', #238, 9.00000000000000 );
#220 = VERTEX_POINT( '', #239 );
#221 = CIRCLE( '', #240, 10.0000000000000 );
#222 = CIRCLE( '', #241, 14.0000000000000 );
#223 = CARTESIAN_POINT( '', ( -25.0000000000000, 0.000000000000000, 1.00000000000000 ) );
#224 = AXIS2_PLACEMENT_3D( '', #242, #243, #244 );
#225 = CARTESIAN_POINT( '', ( -25.0000000000000, 0.000000000000000, 39.0000000000000 ) );
#226 = AXIS2_PLACEMENT_3D( '', #245, #246, #247 );
#227 = CARTESIAN_POINT( '', ( -24.0000000000000, 0.000000000000000, 0.000000000000000 ) );
#228 = AXIS2_PLACEMENT_3D( '', #248, #249, #250 );
#229 = CARTESIAN_POINT( '', ( 0.000000000000000, -24.0000000000000, 40.0000000000000 ) );
#230 = AXIS2_PLACEMENT_3D( '', #251, #252, #253 );
#231 = CARTESIAN_POINT( '', ( -9.00000000000000, -10.0000000000000, 22.0000000000000 ) );
#232 = AXIS2_PLACEMENT_3D( '', #254, #255, #256 );
#233 = CARTESIAN_POINT( '', ( 0.000000000000000, -23.0000000000000, 22.0000000000000 ) );
#234 = AXIS2_PLACEMENT_3D( '', #257, #258, #259 );
#235 = CARTESIAN_POINT( '', ( -13.0000000000000, -10.0000000000000, 39.0000000000000 ) );
#236 = AXIS2_PLACEMENT_3D( '', #260, #261, #262 );
#237 = CARTESIAN_POINT( '', ( -9.00000000000000, -10.0000000000000, 1.00000000000000 ) );
#238 = AXIS2_PLACEMENT_3D( '', #263, #264, #265 );
#239 = CARTESIAN_POINT( '', ( -10.0000000000000, -10.0000000000000, 0.000000000000000 ) );
#240 = AXIS2_PLACEMENT_3D( '', #266, #267, #268 );
#241 = AXIS2_PLACEMENT_3D( '', #269, #270, #271 );
#242 = CARTESIAN_POINT( '', ( 0.000000000000000, 0.000000000000000, 1.00000000000000 ) );
#243 = DIRECTION( '', ( 0.000000000000000, 0.000000000000000, -1.00000000000000 ) );
#244 = DIRECTION( '', ( -1.00000000000000, 0.000000000000000, 0.000000000000000 ) );
#245 = CARTESIAN_POINT( '', ( 0.000000000000000, 0.000000000000000, 39.0000000000000 ) );
#246 = DIRECTION( '', ( 0.000000000000000, 0.000000000000000, -1.00000000000000 ) );
#247 = DIRECTION( '', ( -1.00000000000000, 0.000000000000000, 0.000000000000000 ) );
#248 = CARTESIAN_POINT( '', ( 0.000000000000000, 0.000000000000000, 0.000000000000000 ) );
#249 = DIRECTION( '', ( 0.000000000000000, 0.000000000000000, -1.00000000000000 ) );
#250 = DIRECTION( '', ( -1.00000000000000, 0.000000000000000, 0.000000000000000 ) );
#251 = CARTESIAN_POINT( '', ( 0.000000000000000, 0.000000000000000, 40.0000000000000 ) );
#252 = DIRECTION( '', ( 0.000000000000000, 0.000000000000000, -1.00000000000000 ) );
#253 = DIRECTION( '', ( -1.00000000000000, 0.000000000000000, 0.000000000000000 ) );
#254 = CARTESIAN_POINT( '', ( 0.000000000000000, -10.0000000000000, 22.0000000000000 ) );
#255 = DIRECTION( '', ( 0.000000000000000, 0.000000000000000, -1.00000000000000 ) );
#256 = DIRECTION( '', ( -1.00000000000000, 0.000000000000000, 0.000000000000000 ) );
#257 = CARTESIAN_POINT( '', ( 0.000000000000000, -10.0000000000000, 22.0000000000000 ) );
#258 = DIRECTION( '', ( 0.000000000000000, 0.000000000000000, 1.00000000000000 ) );
#259 = DIRECTION( '', ( 0.000000000000000, -1.00000000000000, 0.000000000000000 ) );
#260 = CARTESIAN_POINT( '', ( 0.000000000000000, -10.0000000000000, 39.0000000000000 ) );
#261 = DIRECTION( '', ( 0.000000000000000, 0.000000000000000, -1.00000000000000 ) );
#262 = DIRECTION( '', ( -1.00000000000000, 0.000000000000000, 0.000000000000000 ) );
#263 = CARTESIAN_POINT( '', ( 0.000000000000000, -10.0000000000000, 1.00000000000000 ) );
#264 = DIRECTION( '', ( 0.000000000000000, 0.000000000000000, -1.00000000000000 ) );
#265 = DIRECTION( '', ( -1.00000000000000, 0.000000000000000, 0.000000000000000 ) );
#266 = CARTESIAN_POINT( '', ( 0.000000000000000, -10.0000000000000, 0.000000000000000 ) );
#267 = DIRECTION( '', ( 0.000000000000000, 0.000000000000000, -1.00000000000000 ) );
#268 = DIRECTION( '', ( -1.00000000000000, 0.000000000000000, 0.000000000000000 ) );
#269 = CARTESIAN_POINT( '', ( 0.000000000000000, -10.0000000000000, 40.0000000000000 ) );
#270 = DIRECTION( '', ( 0.000000000000000, 0.000000000000000, -1.00000000000000 ) );
#271 = DIRECTION( '', ( -1.00000000000000, 0.000000000000000, 0.000000000000000 ) );
ENDSEC;
END-ISO-10303-21;
