ISO-10303-21;
HEADER;
FILE_DESCRIPTION( ( 'Unknown' ), '1' );
FILE_NAME( 'D:/\X2\66AB5B58\X0\/PT55-3d/PT55A-1006-150.stp', 'Unknown', ( 'Unknown' ), ( 'Unknown' ), 'PSStep 16.0.42', 'Unknown', '  ' );
FILE_SCHEMA( ( 'AUTOMOTIVE_DESIGN { 1 0 10303 214 1 1 1 1 }' ) );
ENDSEC;
DATA;
#1 = MECHANICAL_DESIGN_GEOMETRIC_PRESENTATION_REPRESENTATION( ' ', ( #10, #11, #12, #13, #14, #15, #16 ), #6 );
#2 = PRODUCT_DEFINITION_CONTEXT( '', #17, 'design' );
#3 = APPLICATION_PROTOCOL_DEFINITION( 'international standard', 'automotive_design', 2001, #17 );
#4 = PRODUCT_CATEGORY_RELATIONSHIP( 'NONE', 'NONE', #18, #19 );
#5 = SHAPE_DEFINITION_REPRESENTATION( #20, #21 );
#6 =  ( GEOMETRIC_REPRESENTATION_CONTEXT( 3 )GLOBAL_UNCERTAINTY_ASSIGNED_CONTEXT( ( #24 ) )GLOBAL_UNIT_ASSIGNED_CONTEXT( ( #26, #27, #28 ) )REPRESENTATION_CONTEXT( 'NONE', 'WORKSPACE' ) );
#10 = STYLED_ITEM( '', ( #30 ), #31 );
#11 = STYLED_ITEM( '', ( #32 ), #33 );
#12 = STYLED_ITEM( '', ( #34 ), #35 );
#13 = STYLED_ITEM( '', ( #36 ), #37 );
#14 = STYLED_ITEM( '', ( #38 ), #39 );
#15 = STYLED_ITEM( '', ( #40 ), #41 );
#16 = STYLED_ITEM( '', ( #42 ), #43 );
#17 = APPLICATION_CONTEXT( 'core data for automotive mechanical design processes' );
#18 = PRODUCT_CATEGORY( 'part', 'NONE' );
#19 = PRODUCT_RELATED_PRODUCT_CATEGORY( 'detail', ' ', ( #44 ) );
#20 = PRODUCT_DEFINITION_SHAPE( 'NONE', 'NONE', #45 );
#21 = ADVANCED_BREP_SHAPE_REPRESENTATION( '1', ( #46, #47 ), #6 );
#24 = UNCERTAINTY_MEASURE_WITH_UNIT( LENGTH_MEASURE( 0.00100000000000000 ), #26, '', '' );
#26 =  ( CONVERSION_BASED_UNIT( 'MILLIMETRE', #50 )LENGTH_UNIT(  )NAMED_UNIT( #53 ) );
#27 =  ( NAMED_UNIT( #55 )PLANE_ANGLE_UNIT(  )SI_UNIT( $, .RADIAN. ) );
#28 =  ( NAMED_UNIT( #55 )SI_UNIT( $, .STERADIAN. )SOLID_ANGLE_UNIT(  ) );
#30 = PRESENTATION_STYLE_ASSIGNMENT( ( #61 ) );
#31 = ADVANCED_FACE( '', ( #62, #63 ), #64, .T. );
#32 = PRESENTATION_STYLE_ASSIGNMENT( ( #65 ) );
#33 = ADVANCED_FACE( '', ( #66, #67 ), #68, .T. );
#34 = PRESENTATION_STYLE_ASSIGNMENT( ( #69 ) );
#35 = ADVANCED_FACE( '', ( #70 ), #71, .T. );
#36 = PRESENTATION_STYLE_ASSIGNMENT( ( #72 ) );
#37 = ADVANCED_FACE( '', ( #73, #74 ), #75, .T. );
#38 = PRESENTATION_STYLE_ASSIGNMENT( ( #76 ) );
#39 = ADVANCED_FACE( '', ( #77, #78 ), #79, .T. );
#40 = PRESENTATION_STYLE_ASSIGNMENT( ( #80 ) );
#41 = ADVANCED_FACE( '', ( #81, #82 ), #83, .F. );
#42 = PRESENTATION_STYLE_ASSIGNMENT( ( #84 ) );
#43 = ADVANCED_FACE( '', ( #85, #86 ), #87, .T. );
#44 = PRODUCT( '1', '1', 'PART-1-DESC', ( #88 ) );
#45 = PRODUCT_DEFINITION( 'NONE', 'NONE', #89, #2 );
#46 = MANIFOLD_SOLID_BREP( '1', #90 );
#47 = AXIS2_PLACEMENT_3D( '', #91, #92, #93 );
#50 = LENGTH_MEASURE_WITH_UNIT( LENGTH_MEASURE( 1.00000000000000 ), #94 );
#53 = DIMENSIONAL_EXPONENTS( 1.00000000000000, 0.000000000000000, 0.000000000000000, 0.000000000000000, 0.000000000000000, 0.000000000000000, 0.000000000000000 );
#55 = DIMENSIONAL_EXPONENTS( 0.000000000000000, 0.000000000000000, 0.000000000000000, 0.000000000000000, 0.000000000000000, 0.000000000000000, 0.000000000000000 );
#61 = SURFACE_STYLE_USAGE( .BOTH., #95 );
#62 = FACE_BOUND( '', #96, .T. );
#63 = FACE_OUTER_BOUND( '', #97, .T. );
#64 = SPHERICAL_SURFACE( '', #98, 3.00000000000000 );
#65 = SURFACE_STYLE_USAGE( .BOTH., #99 );
#66 = FACE_OUTER_BOUND( '', #100, .T. );
#67 = FACE_OUTER_BOUND( '', #101, .T. );
#68 = TOROIDAL_SURFACE( '', #102, 4.00000000000000, 1.00000000000000 );
#69 = SURFACE_STYLE_USAGE( .BOTH., #103 );
#70 = FACE_OUTER_BOUND( '', #104, .T. );
#71 = PLANE( '', #105 );
#72 = SURFACE_STYLE_USAGE( .BOTH., #106 );
#73 = FACE_OUTER_BOUND( '', #107, .T. );
#74 = FACE_BOUND( '', #108, .T. );
#75 = CONICAL_SURFACE( '', #109, 1.50000000000000, 0.217989795741607 );
#76 = SURFACE_STYLE_USAGE( .BOTH., #110 );
#77 = FACE_OUTER_BOUND( '', #111, .T. );
#78 = FACE_OUTER_BOUND( '', #112, .T. );
#79 = CYLINDRICAL_SURFACE( '', #113, 1.50000000000000 );
#80 = SURFACE_STYLE_USAGE( .BOTH., #114 );
#81 = FACE_BOUND( '', #115, .T. );
#82 = FACE_OUTER_BOUND( '', #116, .T. );
#83 = PLANE( '', #117 );
#84 = SURFACE_STYLE_USAGE( .BOTH., #118 );
#85 = FACE_OUTER_BOUND( '', #119, .T. );
#86 = FACE_OUTER_BOUND( '', #120, .T. );
#87 = CYLINDRICAL_SURFACE( '', #121, 5.00000000000000 );
#88 = PRODUCT_CONTEXT( '', #17, 'mechanical' );
#89 = PRODUCT_DEFINITION_FORMATION_WITH_SPECIFIED_SOURCE( ' ', 'NONE', #44, .NOT_KNOWN. );
#90 = CLOSED_SHELL( '', ( #41, #39, #35, #43, #31, #37, #33 ) );
#91 = CARTESIAN_POINT( '', ( 0.000000000000000, 0.000000000000000, 0.000000000000000 ) );
#92 = DIRECTION( '', ( 0.000000000000000, 0.000000000000000, 1.00000000000000 ) );
#93 = DIRECTION( '', ( 1.00000000000000, 0.000000000000000, 0.000000000000000 ) );
#94 =  ( LENGTH_UNIT(  )NAMED_UNIT( #53 )SI_UNIT( .MILLI., .METRE. ) );
#95 = SURFACE_SIDE_STYLE( '', ( #123 ) );
#96 = VERTEX_LOOP( '', #124 );
#97 = EDGE_LOOP( '', ( #125 ) );
#98 = AXIS2_PLACEMENT_3D( '', #126, #127, #128 );
#99 = SURFACE_SIDE_STYLE( '', ( #129 ) );
#100 = EDGE_LOOP( '', ( #130 ) );
#101 = EDGE_LOOP( '', ( #131 ) );
#102 = AXIS2_PLACEMENT_3D( '', #132, #133, #134 );
#103 = SURFACE_SIDE_STYLE( '', ( #135 ) );
#104 = EDGE_LOOP( '', ( #136 ) );
#105 = AXIS2_PLACEMENT_3D( '', #137, #138, #139 );
#106 = SURFACE_SIDE_STYLE( '', ( #140 ) );
#107 = EDGE_LOOP( '', ( #141 ) );
#108 = EDGE_LOOP( '', ( #142 ) );
#109 = AXIS2_PLACEMENT_3D( '', #143, #144, #145 );
#110 = SURFACE_SIDE_STYLE( '', ( #146 ) );
#111 = EDGE_LOOP( '', ( #147 ) );
#112 = EDGE_LOOP( '', ( #148 ) );
#113 = AXIS2_PLACEMENT_3D( '', #149, #150, #151 );
#114 = SURFACE_SIDE_STYLE( '', ( #152 ) );
#115 = EDGE_LOOP( '', ( #153 ) );
#116 = EDGE_LOOP( '', ( #154 ) );
#117 = AXIS2_PLACEMENT_3D( '', #155, #156, #157 );
#118 = SURFACE_SIDE_STYLE( '', ( #158 ) );
#119 = EDGE_LOOP( '', ( #159 ) );
#120 = EDGE_LOOP( '', ( #160 ) );
#121 = AXIS2_PLACEMENT_3D( '', #161, #162, #163 );
#123 = SURFACE_STYLE_FILL_AREA( #164 );
#124 = VERTEX_POINT( '', #165 );
#125 = ORIENTED_EDGE( '', *, *, #166, .T. );
#126 = CARTESIAN_POINT( '', ( 0.000000000000000, 0.000000000000000, 11.0000000000000 ) );
#127 = DIRECTION( '', ( 2.70374606604864E-017, 0.000000000000000, 1.00000000000000 ) );
#128 = DIRECTION( '', ( 1.00000000000000, 0.000000000000000, -2.70374606604864E-017 ) );
#129 = SURFACE_STYLE_FILL_AREA( #167 );
#130 = ORIENTED_EDGE( '', *, *, #168, .F. );
#131 = ORIENTED_EDGE( '', *, *, #169, .F. );
#132 = CARTESIAN_POINT( '', ( 0.000000000000000, 0.000000000000000, -6.70000000000000 ) );
#133 = DIRECTION( '', ( 0.000000000000000, 0.000000000000000, -1.00000000000000 ) );
#134 = DIRECTION( '', ( -1.00000000000000, 0.000000000000000, 0.000000000000000 ) );
#135 = SURFACE_STYLE_FILL_AREA( #170 );
#136 = ORIENTED_EDGE( '', *, *, #169, .T. );
#137 = CARTESIAN_POINT( '', ( 0.000000000000000, 0.000000000000000, -7.70000000000000 ) );
#138 = DIRECTION( '', ( 0.000000000000000, 0.000000000000000, -1.00000000000000 ) );
#139 = DIRECTION( '', ( -1.00000000000000, 0.000000000000000, 0.000000000000000 ) );
#140 = SURFACE_STYLE_FILL_AREA( #171 );
#141 = ORIENTED_EDGE( '', *, *, #166, .F. );
#142 = ORIENTED_EDGE( '', *, *, #172, .T. );
#143 = CARTESIAN_POINT( '', ( -7.05677723238695E-017, 0.000000000000000, 3.90000000000000 ) );
#144 = DIRECTION( '', ( 2.70374606604864E-017, -0.000000000000000, 1.00000000000000 ) );
#145 = DIRECTION( '', ( 1.00000000000000, 0.000000000000000, -2.70374606604864E-017 ) );
#146 = SURFACE_STYLE_FILL_AREA( #173 );
#147 = ORIENTED_EDGE( '', *, *, #172, .F. );
#148 = ORIENTED_EDGE( '', *, *, #174, .F. );
#149 = CARTESIAN_POINT( '', ( 0.000000000000000, 0.000000000000000, 3.90000000000000 ) );
#150 = DIRECTION( '', ( -0.000000000000000, -0.000000000000000, 1.00000000000000 ) );
#151 = DIRECTION( '', ( -1.00000000000000, 0.000000000000000, 0.000000000000000 ) );
#152 = SURFACE_STYLE_FILL_AREA( #175 );
#153 = ORIENTED_EDGE( '', *, *, #174, .T. );
#154 = ORIENTED_EDGE( '', *, *, #176, .F. );
#155 = CARTESIAN_POINT( '', ( 0.000000000000000, 0.000000000000000, 3.10000000000000 ) );
#156 = DIRECTION( '', ( 0.000000000000000, 0.000000000000000, -1.00000000000000 ) );
#157 = DIRECTION( '', ( -1.00000000000000, 0.000000000000000, 0.000000000000000 ) );
#158 = SURFACE_STYLE_FILL_AREA( #177 );
#159 = ORIENTED_EDGE( '', *, *, #168, .T. );
#160 = ORIENTED_EDGE( '', *, *, #176, .T. );
#161 = CARTESIAN_POINT( '', ( 0.000000000000000, 0.000000000000000, -7.70000000000000 ) );
#162 = DIRECTION( '', ( -0.000000000000000, -0.000000000000000, -1.00000000000000 ) );
#163 = DIRECTION( '', ( 1.00000000000000, 0.000000000000000, 0.000000000000000 ) );
#164 = FILL_AREA_STYLE( '', ( #178 ) );
#165 = CARTESIAN_POINT( '', ( 2.64809401853562E-016, 0.000000000000000, 14.0000000000000 ) );
#166 = EDGE_CURVE( '', #179, #179, #180, .T. );
#167 = FILL_AREA_STYLE( '', ( #181 ) );
#168 = EDGE_CURVE( '', #182, #182, #183, .F. );
#169 = EDGE_CURVE( '', #184, #184, #185, .T. );
#170 = FILL_AREA_STYLE( '', ( #186 ) );
#171 = FILL_AREA_STYLE( '', ( #187 ) );
#172 = EDGE_CURVE( '', #188, #188, #189, .T. );
#173 = FILL_AREA_STYLE( '', ( #190 ) );
#174 = EDGE_CURVE( '', #191, #191, #192, .T. );
#175 = FILL_AREA_STYLE( '', ( #193 ) );
#176 = EDGE_CURVE( '', #194, #194, #195, .T. );
#177 = FILL_AREA_STYLE( '', ( #196 ) );
#178 = FILL_AREA_STYLE_COLOUR( '', #197 );
#179 = VERTEX_POINT( '', #198 );
#180 = CIRCLE( '', #199, 2.92900249017335 );
#181 = FILL_AREA_STYLE_COLOUR( '', #200 );
#182 = VERTEX_POINT( '', #201 );
#183 = CIRCLE( '', #202, 5.00000000000000 );
#184 = VERTEX_POINT( '', #203 );
#185 = CIRCLE( '', #204, 4.00000000000000 );
#186 = FILL_AREA_STYLE_COLOUR( '', #205 );
#187 = FILL_AREA_STYLE_COLOUR( '', #206 );
#188 = VERTEX_POINT( '', #207 );
#189 = CIRCLE( '', #208, 1.50000000000000 );
#190 = FILL_AREA_STYLE_COLOUR( '', #209 );
#191 = VERTEX_POINT( '', #210 );
#192 = CIRCLE( '', #211, 1.50000000000000 );
#193 = FILL_AREA_STYLE_COLOUR( '', #212 );
#194 = VERTEX_POINT( '', #213 );
#195 = CIRCLE( '', #214, 5.00000000000000 );
#196 = FILL_AREA_STYLE_COLOUR( '', #215 );
#197 = COLOUR_RGB( '', 0.643137276172638, 0.678431391716003, 0.698039233684540 );
#198 = CARTESIAN_POINT( '', ( 2.92900249017335, 0.000000000000000, 10.3511977091915 ) );
#199 = AXIS2_PLACEMENT_3D( '', #216, #217, #218 );
#200 = COLOUR_RGB( '', 0.643137276172638, 0.678431391716003, 0.698039233684540 );
#201 = CARTESIAN_POINT( '', ( -5.00000000000000, 0.000000000000000, -6.70000000000000 ) );
#202 = AXIS2_PLACEMENT_3D( '', #219, #220, #221 );
#203 = CARTESIAN_POINT( '', ( -4.00000000000000, 0.000000000000000, -7.70000000000000 ) );
#204 = AXIS2_PLACEMENT_3D( '', #222, #223, #224 );
#205 = COLOUR_RGB( '', 0.643137276172638, 0.678431391716003, 0.698039233684540 );
#206 = COLOUR_RGB( '', 0.643137276172638, 0.678431391716003, 0.698039233684540 );
#207 = CARTESIAN_POINT( '', ( 1.50000000000000, 0.000000000000000, 3.90000000000000 ) );
#208 = AXIS2_PLACEMENT_3D( '', #225, #226, #227 );
#209 = COLOUR_RGB( '', 0.643137276172638, 0.678431391716003, 0.698039233684540 );
#210 = CARTESIAN_POINT( '', ( -1.50000000000000, 0.000000000000000, 3.10000000000000 ) );
#211 = AXIS2_PLACEMENT_3D( '', #228, #229, #230 );
#212 = COLOUR_RGB( '', 0.643137276172638, 0.678431391716003, 0.698039233684540 );
#213 = CARTESIAN_POINT( '', ( 0.000000000000000, 5.00000000000000, 3.10000000000000 ) );
#214 = AXIS2_PLACEMENT_3D( '', #231, #232, #233 );
#215 = COLOUR_RGB( '', 0.643137276172638, 0.678431391716003, 0.698039233684540 );
#216 = CARTESIAN_POINT( '', ( 1.03856231951417E-016, 0.000000000000000, 10.3511977091915 ) );
#217 = DIRECTION( '', ( 2.70374606604864E-017, 0.000000000000000, 1.00000000000000 ) );
#218 = DIRECTION( '', ( 1.00000000000000, 0.000000000000000, -2.70374606604864E-017 ) );
#219 = CARTESIAN_POINT( '', ( 0.000000000000000, 0.000000000000000, -6.70000000000000 ) );
#220 = DIRECTION( '', ( 0.000000000000000, 0.000000000000000, -1.00000000000000 ) );
#221 = DIRECTION( '', ( -1.00000000000000, 0.000000000000000, 0.000000000000000 ) );
#222 = CARTESIAN_POINT( '', ( 0.000000000000000, 0.000000000000000, -7.70000000000000 ) );
#223 = DIRECTION( '', ( 0.000000000000000, 0.000000000000000, -1.00000000000000 ) );
#224 = DIRECTION( '', ( -1.00000000000000, 0.000000000000000, 0.000000000000000 ) );
#225 = CARTESIAN_POINT( '', ( 0.000000000000000, 0.000000000000000, 3.90000000000000 ) );
#226 = DIRECTION( '', ( 0.000000000000000, 0.000000000000000, 1.00000000000000 ) );
#227 = DIRECTION( '', ( 1.00000000000000, 0.000000000000000, 0.000000000000000 ) );
#228 = CARTESIAN_POINT( '', ( 0.000000000000000, 0.000000000000000, 3.10000000000000 ) );
#229 = DIRECTION( '', ( 0.000000000000000, 0.000000000000000, -1.00000000000000 ) );
#230 = DIRECTION( '', ( -1.00000000000000, 0.000000000000000, 0.000000000000000 ) );
#231 = CARTESIAN_POINT( '', ( 0.000000000000000, 0.000000000000000, 3.10000000000000 ) );
#232 = DIRECTION( '', ( 0.000000000000000, 0.000000000000000, -1.00000000000000 ) );
#233 = DIRECTION( '', ( 0.000000000000000, 1.00000000000000, 0.000000000000000 ) );
ENDSEC;
END-ISO-10303-21;
