ISO-10303-21;
HEADER;
FILE_DESCRIPTION( ( 'Unknown' ), '1' );
FILE_NAME( 'S:/LEAVE 2D&3D CAD/LEAVE 3D-STEP/Metric/PT-3D/PT57-3D/PT57-1610.stp', 'Unknown', ( 'Unknown' ), ( 'Unknown' ), 'PSStep 16.0.42', 'Unknown', '  ' );
FILE_SCHEMA( ( 'AUTOMOTIVE_DESIGN { 1 0 10303 214 1 1 1 1 }' ) );
ENDSEC;
DATA;
#1 = MECHANICAL_DESIGN_GEOMETRIC_PRESENTATION_REPRESENTATION( ' ', ( #10, #11, #12, #13, #14, #15, #16, #17, #18, #19, #20 ), #6 );
#2 = PRODUCT_DEFINITION_CONTEXT( '', #21, 'design' );
#3 = APPLICATION_PROTOCOL_DEFINITION( 'international standard', 'automotive_design', 2001, #21 );
#4 = PRODUCT_CATEGORY_RELATIONSHIP( 'NONE', 'NONE', #22, #23 );
#5 = SHAPE_DEFINITION_REPRESENTATION( #24, #25 );
#6 =  ( GEOMETRIC_REPRESENTATION_CONTEXT( 3 )GLOBAL_UNCERTAINTY_ASSIGNED_CONTEXT( ( #28 ) )GLOBAL_UNIT_ASSIGNED_CONTEXT( ( #30, #31, #32 ) )REPRESENTATION_CONTEXT( 'NONE', 'WORKSPACE' ) );
#10 = STYLED_ITEM( '', ( #34 ), #35 );
#11 = STYLED_ITEM( '', ( #36 ), #37 );
#12 = STYLED_ITEM( '', ( #38 ), #39 );
#13 = STYLED_ITEM( '', ( #40 ), #41 );
#14 = STYLED_ITEM( '', ( #42 ), #43 );
#15 = STYLED_ITEM( '', ( #44 ), #45 );
#16 = STYLED_ITEM( '', ( #46 ), #47 );
#17 = STYLED_ITEM( '', ( #48 ), #49 );
#18 = STYLED_ITEM( '', ( #50 ), #51 );
#19 = STYLED_ITEM( '', ( #52 ), #53 );
#20 = STYLED_ITEM( '', ( #54 ), #55 );
#21 = APPLICATION_CONTEXT( 'core data for automotive mechanical design processes' );
#22 = PRODUCT_CATEGORY( 'part', 'NONE' );
#23 = PRODUCT_RELATED_PRODUCT_CATEGORY( 'detail', ' ', ( #56 ) );
#24 = PRODUCT_DEFINITION_SHAPE( 'NONE', 'NONE', #57 );
#25 = ADVANCED_BREP_SHAPE_REPRESENTATION( '1', ( #58, #59 ), #6 );
#28 = UNCERTAINTY_MEASURE_WITH_UNIT( LENGTH_MEASURE( 0.00100000000000000 ), #30, '', '' );
#30 =  ( CONVERSION_BASED_UNIT( 'MILLIMETRE', #62 )LENGTH_UNIT(  )NAMED_UNIT( #65 ) );
#31 =  ( NAMED_UNIT( #67 )PLANE_ANGLE_UNIT(  )SI_UNIT( $, .RADIAN. ) );
#32 =  ( NAMED_UNIT( #67 )SI_UNIT( $, .STERADIAN. )SOLID_ANGLE_UNIT(  ) );
#34 = PRESENTATION_STYLE_ASSIGNMENT( ( #73 ) );
#35 = ADVANCED_FACE( '', ( #74, #75 ), #76, .F. );
#36 = PRESENTATION_STYLE_ASSIGNMENT( ( #77 ) );
#37 = ADVANCED_FACE( '', ( #78 ), #79, .T. );
#38 = PRESENTATION_STYLE_ASSIGNMENT( ( #80 ) );
#39 = ADVANCED_FACE( '', ( #81, #82 ), #83, .F. );
#40 = PRESENTATION_STYLE_ASSIGNMENT( ( #84 ) );
#41 = ADVANCED_FACE( '', ( #85, #86 ), #87, .T. );
#42 = PRESENTATION_STYLE_ASSIGNMENT( ( #88 ) );
#43 = ADVANCED_FACE( '', ( #89, #90 ), #91, .F. );
#44 = PRESENTATION_STYLE_ASSIGNMENT( ( #92 ) );
#45 = ADVANCED_FACE( '', ( #93 ), #94, .T. );
#46 = PRESENTATION_STYLE_ASSIGNMENT( ( #95 ) );
#47 = ADVANCED_FACE( '', ( #96 ), #97, .T. );
#48 = PRESENTATION_STYLE_ASSIGNMENT( ( #98 ) );
#49 = ADVANCED_FACE( '', ( #99 ), #100, .T. );
#50 = PRESENTATION_STYLE_ASSIGNMENT( ( #101 ) );
#51 = ADVANCED_FACE( '', ( #102, #103 ), #104, .F. );
#52 = PRESENTATION_STYLE_ASSIGNMENT( ( #105 ) );
#53 = ADVANCED_FACE( '', ( #106, #107 ), #108, .T. );
#54 = PRESENTATION_STYLE_ASSIGNMENT( ( #109 ) );
#55 = ADVANCED_FACE( '', ( #110, #111 ), #112, .T. );
#56 = PRODUCT( '1', '1', 'PART-1-DESC', ( #113 ) );
#57 = PRODUCT_DEFINITION( 'NONE', 'NONE', #114, #2 );
#58 = MANIFOLD_SOLID_BREP( '1', #115 );
#59 = AXIS2_PLACEMENT_3D( '', #116, #117, #118 );
#62 = LENGTH_MEASURE_WITH_UNIT( LENGTH_MEASURE( 1.00000000000000 ), #119 );
#65 = DIMENSIONAL_EXPONENTS( 1.00000000000000, 0.000000000000000, 0.000000000000000, 0.000000000000000, 0.000000000000000, 0.000000000000000, 0.000000000000000 );
#67 = DIMENSIONAL_EXPONENTS( 0.000000000000000, 0.000000000000000, 0.000000000000000, 0.000000000000000, 0.000000000000000, 0.000000000000000, 0.000000000000000 );
#73 = SURFACE_STYLE_USAGE( .BOTH., #120 );
#74 = FACE_BOUND( '', #121, .T. );
#75 = FACE_OUTER_BOUND( '', #122, .T. );
#76 = CONICAL_SURFACE( '', #123, 6.10000000000000, 0.785398163397448 );
#77 = SURFACE_STYLE_USAGE( .BOTH., #124 );
#78 = FACE_OUTER_BOUND( '', #125, .T. );
#79 = PLANE( '', #126 );
#80 = SURFACE_STYLE_USAGE( .BOTH., #127 );
#81 = FACE_OUTER_BOUND( '', #128, .T. );
#82 = FACE_BOUND( '', #129, .T. );
#83 = CONICAL_SURFACE( '', #130, 5.10000000000000, 1.02974425867665 );
#84 = SURFACE_STYLE_USAGE( .BOTH., #131 );
#85 = FACE_OUTER_BOUND( '', #132, .T. );
#86 = FACE_OUTER_BOUND( '', #133, .T. );
#87 = TOROIDAL_SURFACE( '', #134, 7.50000000000000, 1.50000000000000 );
#88 = SURFACE_STYLE_USAGE( .BOTH., #135 );
#89 = FACE_OUTER_BOUND( '', #136, .T. );
#90 = FACE_OUTER_BOUND( '', #137, .T. );
#91 = CYLINDRICAL_SURFACE( '', #138, 5.10000000000000 );
#92 = SURFACE_STYLE_USAGE( .BOTH., #139 );
#93 = FACE_OUTER_BOUND( '', #140, .T. );
#94 = PLANE( '', #141 );
#95 = SURFACE_STYLE_USAGE( .BOTH., #142 );
#96 = FACE_OUTER_BOUND( '', #143, .T. );
#97 = PLANE( '', #144 );
#98 = SURFACE_STYLE_USAGE( .BOTH., #145 );
#99 = FACE_OUTER_BOUND( '', #146, .T. );
#100 = PLANE( '', #147 );
#101 = SURFACE_STYLE_USAGE( .BOTH., #148 );
#102 = FACE_BOUND( '', #149, .T. );
#103 = FACE_OUTER_BOUND( '', #150, .T. );
#104 = PLANE( '', #151 );
#105 = SURFACE_STYLE_USAGE( .BOTH., #152 );
#106 = FACE_OUTER_BOUND( '', #153, .T. );
#107 = FACE_OUTER_BOUND( '', #154, .T. );
#108 = CYLINDRICAL_SURFACE( '', #155, 9.00000000000000 );
#109 = SURFACE_STYLE_USAGE( .BOTH., #156 );
#110 = FACE_OUTER_BOUND( '', #157, .T. );
#111 = FACE_OUTER_BOUND( '', #158, .T. );
#112 = TOROIDAL_SURFACE( '', #159, 8.50000000000000, 0.500000000000000 );
#113 = PRODUCT_CONTEXT( '', #21, 'mechanical' );
#114 = PRODUCT_DEFINITION_FORMATION_WITH_SPECIFIED_SOURCE( ' ', 'NONE', #56, .NOT_KNOWN. );
#115 = CLOSED_SHELL( '', ( #39, #35, #43, #53, #41, #51, #37, #45, #47, #49, #55 ) );
#116 = CARTESIAN_POINT( '', ( 0.000000000000000, 0.000000000000000, 0.000000000000000 ) );
#117 = DIRECTION( '', ( 0.000000000000000, 0.000000000000000, 1.00000000000000 ) );
#118 = DIRECTION( '', ( 1.00000000000000, 0.000000000000000, 0.000000000000000 ) );
#119 =  ( LENGTH_UNIT(  )NAMED_UNIT( #65 )SI_UNIT( .MILLI., .METRE. ) );
#120 = SURFACE_SIDE_STYLE( '', ( #161 ) );
#121 = EDGE_LOOP( '', ( #162 ) );
#122 = EDGE_LOOP( '', ( #163 ) );
#123 = AXIS2_PLACEMENT_3D( '', #164, #165, #166 );
#124 = SURFACE_SIDE_STYLE( '', ( #167 ) );
#125 = EDGE_LOOP( '', ( #168, #169, #170, #171 ) );
#126 = AXIS2_PLACEMENT_3D( '', #172, #173, #174 );
#127 = SURFACE_SIDE_STYLE( '', ( #175 ) );
#128 = EDGE_LOOP( '', ( #176 ) );
#129 = VERTEX_LOOP( '', #177 );
#130 = AXIS2_PLACEMENT_3D( '', #178, #179, #180 );
#131 = SURFACE_SIDE_STYLE( '', ( #181 ) );
#132 = EDGE_LOOP( '', ( #182 ) );
#133 = EDGE_LOOP( '', ( #183, #184, #185 ) );
#134 = AXIS2_PLACEMENT_3D( '', #186, #187, #188 );
#135 = SURFACE_SIDE_STYLE( '', ( #189 ) );
#136 = EDGE_LOOP( '', ( #190 ) );
#137 = EDGE_LOOP( '', ( #191 ) );
#138 = AXIS2_PLACEMENT_3D( '', #192, #193, #194 );
#139 = SURFACE_SIDE_STYLE( '', ( #195 ) );
#140 = EDGE_LOOP( '', ( #196, #197, #198 ) );
#141 = AXIS2_PLACEMENT_3D( '', #199, #200, #201 );
#142 = SURFACE_SIDE_STYLE( '', ( #202 ) );
#143 = EDGE_LOOP( '', ( #203, #204, #205, #206 ) );
#144 = AXIS2_PLACEMENT_3D( '', #207, #208, #209 );
#145 = SURFACE_SIDE_STYLE( '', ( #210 ) );
#146 = EDGE_LOOP( '', ( #211 ) );
#147 = AXIS2_PLACEMENT_3D( '', #212, #213, #214 );
#148 = SURFACE_SIDE_STYLE( '', ( #215 ) );
#149 = EDGE_LOOP( '', ( #216 ) );
#150 = EDGE_LOOP( '', ( #217 ) );
#151 = AXIS2_PLACEMENT_3D( '', #218, #219, #220 );
#152 = SURFACE_SIDE_STYLE( '', ( #221 ) );
#153 = EDGE_LOOP( '', ( #222 ) );
#154 = EDGE_LOOP( '', ( #223, #224, #225, #226 ) );
#155 = AXIS2_PLACEMENT_3D( '', #227, #228, #229 );
#156 = SURFACE_SIDE_STYLE( '', ( #230 ) );
#157 = EDGE_LOOP( '', ( #231 ) );
#158 = EDGE_LOOP( '', ( #232 ) );
#159 = AXIS2_PLACEMENT_3D( '', #233, #234, #235 );
#161 = SURFACE_STYLE_FILL_AREA( #236 );
#162 = ORIENTED_EDGE( '', *, *, #237, .F. );
#163 = ORIENTED_EDGE( '', *, *, #238, .F. );
#164 = CARTESIAN_POINT( '', ( 0.000000000000000, 0.000000000000000, 0.000000000000000 ) );
#165 = DIRECTION( '', ( -0.000000000000000, 0.000000000000000, -1.00000000000000 ) );
#166 = DIRECTION( '', ( -1.00000000000000, 0.000000000000000, 0.000000000000000 ) );
#167 = SURFACE_STYLE_FILL_AREA( #239 );
#168 = ORIENTED_EDGE( '', *, *, #240, .T. );
#169 = ORIENTED_EDGE( '', *, *, #241, .F. );
#170 = ORIENTED_EDGE( '', *, *, #242, .F. );
#171 = ORIENTED_EDGE( '', *, *, #243, .F. );
#172 = CARTESIAN_POINT( '', ( 3.85261158912520E-015, 8.92000000000000, 100.176682947201 ) );
#173 = DIRECTION( '', ( -0.866025403784439, 0.500000000000000, 0.000000000000000 ) );
#174 = DIRECTION( '', ( -0.499999999999999, -0.866025403784439, 0.000000000000000 ) );
#175 = SURFACE_STYLE_FILL_AREA( #244 );
#176 = ORIENTED_EDGE( '', *, *, #245, .F. );
#177 = VERTEX_POINT( '', #246 );
#178 = CARTESIAN_POINT( '', ( 0.000000000000000, 0.000000000000000, 19.0000000000000 ) );
#179 = DIRECTION( '', ( 0.000000000000000, -0.000000000000000, -1.00000000000000 ) );
#180 = DIRECTION( '', ( 0.000000000000000, -1.00000000000000, 0.000000000000000 ) );
#181 = SURFACE_STYLE_FILL_AREA( #247 );
#182 = ORIENTED_EDGE( '', *, *, #248, .F. );
#183 = ORIENTED_EDGE( '', *, *, #243, .T. );
#184 = ORIENTED_EDGE( '', *, *, #249, .T. );
#185 = ORIENTED_EDGE( '', *, *, #250, .F. );
#186 = CARTESIAN_POINT( '', ( 0.000000000000000, 0.000000000000000, 58.5000000000000 ) );
#187 = DIRECTION( '', ( 0.000000000000000, 0.000000000000000, 1.00000000000000 ) );
#188 = DIRECTION( '', ( 1.00000000000000, 0.000000000000000, 0.000000000000000 ) );
#189 = SURFACE_STYLE_FILL_AREA( #251 );
#190 = ORIENTED_EDGE( '', *, *, #237, .T. );
#191 = ORIENTED_EDGE( '', *, *, #245, .T. );
#192 = CARTESIAN_POINT( '', ( 0.000000000000000, 0.000000000000000, 0.000000000000000 ) );
#193 = DIRECTION( '', ( -0.000000000000000, 0.000000000000000, -1.00000000000000 ) );
#194 = DIRECTION( '', ( 0.000000000000000, 1.00000000000000, 0.000000000000000 ) );
#195 = SURFACE_STYLE_FILL_AREA( #252 );
#196 = ORIENTED_EDGE( '', *, *, #241, .T. );
#197 = ORIENTED_EDGE( '', *, *, #253, .T. );
#198 = ORIENTED_EDGE( '', *, *, #254, .T. );
#199 = CARTESIAN_POINT( '', ( -0.0461880215351660, 9.00000000000000, 35.0000000000000 ) );
#200 = DIRECTION( '', ( 0.000000000000000, 0.000000000000000, 1.00000000000000 ) );
#201 = DIRECTION( '', ( 1.00000000000000, 0.000000000000000, 0.000000000000000 ) );
#202 = SURFACE_STYLE_FILL_AREA( #255 );
#203 = ORIENTED_EDGE( '', *, *, #256, .T. );
#204 = ORIENTED_EDGE( '', *, *, #249, .F. );
#205 = ORIENTED_EDGE( '', *, *, #242, .T. );
#206 = ORIENTED_EDGE( '', *, *, #254, .F. );
#207 = CARTESIAN_POINT( '', ( -0.0461880215351660, 9.00000000000000, 100.176682947201 ) );
#208 = DIRECTION( '', ( 0.866025403784439, 0.500000000000000, 0.000000000000000 ) );
#209 = DIRECTION( '', ( -0.499999999999999, 0.866025403784439, 0.000000000000000 ) );
#210 = SURFACE_STYLE_FILL_AREA( #257 );
#211 = ORIENTED_EDGE( '', *, *, #248, .T. );
#212 = CARTESIAN_POINT( '', ( 0.000000000000000, 0.000000000000000, 60.0000000000000 ) );
#213 = DIRECTION( '', ( 0.000000000000000, 0.000000000000000, 1.00000000000000 ) );
#214 = DIRECTION( '', ( 1.00000000000000, 0.000000000000000, 0.000000000000000 ) );
#215 = SURFACE_STYLE_FILL_AREA( #258 );
#216 = ORIENTED_EDGE( '', *, *, #238, .T. );
#217 = ORIENTED_EDGE( '', *, *, #259, .T. );
#218 = CARTESIAN_POINT( '', ( 0.000000000000000, 0.000000000000000, 0.000000000000000 ) );
#219 = DIRECTION( '', ( 0.000000000000000, 0.000000000000000, 1.00000000000000 ) );
#220 = DIRECTION( '', ( 1.00000000000000, 0.000000000000000, 0.000000000000000 ) );
#221 = SURFACE_STYLE_FILL_AREA( #260 );
#222 = ORIENTED_EDGE( '', *, *, #261, .T. );
#223 = ORIENTED_EDGE( '', *, *, #256, .F. );
#224 = ORIENTED_EDGE( '', *, *, #253, .F. );
#225 = ORIENTED_EDGE( '', *, *, #240, .F. );
#226 = ORIENTED_EDGE( '', *, *, #250, .T. );
#227 = CARTESIAN_POINT( '', ( 0.000000000000000, 0.000000000000000, 60.0000000000000 ) );
#228 = DIRECTION( '', ( -0.000000000000000, -0.000000000000000, 1.00000000000000 ) );
#229 = DIRECTION( '', ( -1.00000000000000, 0.000000000000000, 0.000000000000000 ) );
#230 = SURFACE_STYLE_FILL_AREA( #262 );
#231 = ORIENTED_EDGE( '', *, *, #259, .F. );
#232 = ORIENTED_EDGE( '', *, *, #261, .F. );
#233 = CARTESIAN_POINT( '', ( 0.000000000000000, 0.000000000000000, 0.500000000000000 ) );
#234 = DIRECTION( '', ( 0.000000000000000, 0.000000000000000, 1.00000000000000 ) );
#235 = DIRECTION( '', ( 1.00000000000000, 0.000000000000000, 0.000000000000000 ) );
#236 = FILL_AREA_STYLE( '', ( #263 ) );
#237 = EDGE_CURVE( '', #264, #264, #265, .F. );
#238 = EDGE_CURVE( '', #266, #266, #267, .T. );
#239 = FILL_AREA_STYLE( '', ( #268 ) );
#240 = EDGE_CURVE( '', #269, #270, #271, .T. );
#241 = EDGE_CURVE( '', #272, #270, #273, .T. );
#242 = EDGE_CURVE( '', #274, #272, #275, .T. );
#243 = EDGE_CURVE( '', #269, #274, #276, .T. );
#244 = FILL_AREA_STYLE( '', ( #277 ) );
#245 = EDGE_CURVE( '', #278, #278, #279, .T. );
#246 = CARTESIAN_POINT( '', ( 0.000000000000000, 0.000000000000000, 22.0643891570406 ) );
#247 = FILL_AREA_STYLE( '', ( #280 ) );
#248 = EDGE_CURVE( '', #281, #281, #282, .T. );
#249 = EDGE_CURVE( '', #274, #283, #284, .T. );
#250 = EDGE_CURVE( '', #269, #283, #285, .F. );
#251 = FILL_AREA_STYLE( '', ( #286 ) );
#252 = FILL_AREA_STYLE( '', ( #287 ) );
#253 = EDGE_CURVE( '', #270, #288, #289, .T. );
#254 = EDGE_CURVE( '', #288, #272, #290, .T. );
#255 = FILL_AREA_STYLE( '', ( #291 ) );
#256 = EDGE_CURVE( '', #288, #283, #292, .F. );
#257 = FILL_AREA_STYLE( '', ( #293 ) );
#258 = FILL_AREA_STYLE( '', ( #294 ) );
#259 = EDGE_CURVE( '', #295, #295, #296, .F. );
#260 = FILL_AREA_STYLE( '', ( #297 ) );
#261 = EDGE_CURVE( '', #298, #298, #299, .T. );
#262 = FILL_AREA_STYLE( '', ( #300 ) );
#263 = FILL_AREA_STYLE_COLOUR( '', #301 );
#264 = VERTEX_POINT( '', #302 );
#265 = CIRCLE( '', #303, 5.10000000000000 );
#266 = VERTEX_POINT( '', #304 );
#267 = CIRCLE( '', #305, 6.10000000000000 );
#268 = FILL_AREA_STYLE_COLOUR( '', #306 );
#269 = VERTEX_POINT( '', #307 );
#270 = VERTEX_POINT( '', #308 );
#271 = LINE( '', #309, #310 );
#272 = VERTEX_POINT( '', #311 );
#273 = LINE( '', #312, #313 );
#274 = VERTEX_POINT( '', #314 );
#275 = LINE( '', #315, #316 );
#276 = B_SPLINE_CURVE_WITH_KNOTS( '', 3, ( #317, #318, #319, #320 ), .UNSPECIFIED., .F., .F., ( 4, 4 ), ( 1.96445468389725E-007, 0.000492241297326516 ), .UNSPECIFIED. );
#277 = FILL_AREA_STYLE_COLOUR( '', #321 );
#278 = VERTEX_POINT( '', #322 );
#279 = CIRCLE( '', #323, 5.10000000000000 );
#280 = FILL_AREA_STYLE_COLOUR( '', #324 );
#281 = VERTEX_POINT( '', #325 );
#282 = CIRCLE( '', #326, 7.50000000000000 );
#283 = VERTEX_POINT( '', #327 );
#284 = B_SPLINE_CURVE_WITH_KNOTS( '', 3, ( #328, #329, #330, #331 ), .UNSPECIFIED., .F., .F., ( 4, 4 ), ( 6.20101147807545E-007, 0.000492664953005933 ), .UNSPECIFIED. );
#285 = CIRCLE( '', #332, 9.00000000000000 );
#286 = FILL_AREA_STYLE_COLOUR( '', #333 );
#287 = FILL_AREA_STYLE_COLOUR( '', #334 );
#288 = VERTEX_POINT( '', #335 );
#289 = CIRCLE( '', #336, 9.00000000000000 );
#290 = LINE( '', #337, #338 );
#291 = FILL_AREA_STYLE_COLOUR( '', #339 );
#292 = LINE( '', #340, #341 );
#293 = FILL_AREA_STYLE_COLOUR( '', #342 );
#294 = FILL_AREA_STYLE_COLOUR( '', #343 );
#295 = VERTEX_POINT( '', #344 );
#296 = CIRCLE( '', #345, 8.50000000000000 );
#297 = FILL_AREA_STYLE_COLOUR( '', #346 );
#298 = VERTEX_POINT( '', #347 );
#299 = CIRCLE( '', #348, 9.00000000000000 );
#300 = FILL_AREA_STYLE_COLOUR( '', #349 );
#301 = COLOUR_RGB( '', 0.200000002980232, 0.200000002980232, 0.200000002980232 );
#302 = CARTESIAN_POINT( '', ( 5.10000000000000, 0.000000000000000, 1.00000000000000 ) );
#303 = AXIS2_PLACEMENT_3D( '', #350, #351, #352 );
#304 = CARTESIAN_POINT( '', ( 6.10000000000000, 0.000000000000000, 0.000000000000000 ) );
#305 = AXIS2_PLACEMENT_3D( '', #353, #354, #355 );
#306 = COLOUR_RGB( '', 0.200000002980232, 0.200000002980232, 0.200000002980232 );
#307 = CARTESIAN_POINT( '', ( 0.0461197963879925, 8.99988183057873, 58.5000000000000 ) );
#308 = CARTESIAN_POINT( '', ( 0.0461197963879927, 8.99988183057873, 35.0000000000000 ) );
#309 = CARTESIAN_POINT( '', ( 0.0461197963879927, 8.99988183057873, 60.0000000000000 ) );
#310 = VECTOR( '', #356, 1000.00000000000 );
#311 = CARTESIAN_POINT( '', ( 3.86247023947961E-015, 8.92000000000000, 35.0000000000000 ) );
#312 = CARTESIAN_POINT( '', ( 3.85261158912520E-015, 8.92000000000000, 35.0000000000000 ) );
#313 = VECTOR( '', #357, 1000.00000000000 );
#314 = CARTESIAN_POINT( '', ( 3.86247023947961E-015, 8.92000000000000, 58.9833218389708 ) );
#315 = CARTESIAN_POINT( '', ( 3.86247023947961E-015, 8.92000000000000, 100.176682947201 ) );
#316 = VECTOR( '', #358, 1000.00000000000 );
#317 = CARTESIAN_POINT( '', ( 0.0461197963879926, 8.99988183057873, 58.5000000000000 ) );
#318 = CARTESIAN_POINT( '', ( 0.0461197963879930, 8.99988183057873, 58.6669802285153 ) );
#319 = CARTESIAN_POINT( '', ( 0.0305221399071683, 8.97286589707494, 58.8280017855274 ) );
#320 = CARTESIAN_POINT( '', ( -4.93513851991753E-012, 8.91999999999145, 58.9833218389689 ) );
#321 = COLOUR_RGB( '', 0.200000002980232, 0.200000002980232, 0.200000002980232 );
#322 = CARTESIAN_POINT( '', ( 0.000000000000000, -5.10000000000000, 19.0000000000000 ) );
#323 = AXIS2_PLACEMENT_3D( '', #359, #360, #361 );
#324 = COLOUR_RGB( '', 0.200000002980232, 0.200000002980232, 0.200000002980232 );
#325 = CARTESIAN_POINT( '', ( 7.50000000000000, 0.000000000000000, 60.0000000000000 ) );
#326 = AXIS2_PLACEMENT_3D( '', #362, #363, #364 );
#327 = CARTESIAN_POINT( '', ( -0.0461197963879848, 8.99988183057873, 58.5000000000000 ) );
#328 = CARTESIAN_POINT( '', ( 4.94211129596382E-012, 8.91999999999145, 58.9833218389689 ) );
#329 = CARTESIAN_POINT( '', ( -0.0305221399071614, 8.97286589707494, 58.8280017855274 ) );
#330 = CARTESIAN_POINT( '', ( -0.0461197963879861, 8.99988183057873, 58.6669802285153 ) );
#331 = CARTESIAN_POINT( '', ( -0.0461197963879856, 8.99988183057873, 58.5000000000000 ) );
#332 = AXIS2_PLACEMENT_3D( '', #365, #366, #367 );
#333 = COLOUR_RGB( '', 0.200000002980232, 0.200000002980232, 0.200000002980232 );
#334 = COLOUR_RGB( '', 0.200000002980232, 0.200000002980232, 0.200000002980232 );
#335 = CARTESIAN_POINT( '', ( -0.0461197963879849, 8.99988183057873, 35.0000000000000 ) );
#336 = AXIS2_PLACEMENT_3D( '', #368, #369, #370 );
#337 = CARTESIAN_POINT( '', ( -0.0461880215351660, 9.00000000000000, 35.0000000000000 ) );
#338 = VECTOR( '', #371, 1000.00000000000 );
#339 = COLOUR_RGB( '', 0.200000002980232, 0.200000002980232, 0.200000002980232 );
#340 = CARTESIAN_POINT( '', ( -0.0461197963879849, 8.99988183057873, 60.0000000000000 ) );
#341 = VECTOR( '', #372, 1000.00000000000 );
#342 = COLOUR_RGB( '', 0.200000002980232, 0.200000002980232, 0.200000002980232 );
#343 = COLOUR_RGB( '', 0.200000002980232, 0.200000002980232, 0.200000002980232 );
#344 = CARTESIAN_POINT( '', ( 8.50000000000000, 0.000000000000000, 0.000000000000000 ) );
#345 = AXIS2_PLACEMENT_3D( '', #373, #374, #375 );
#346 = COLOUR_RGB( '', 0.200000002980232, 0.200000002980232, 0.200000002980232 );
#347 = CARTESIAN_POINT( '', ( 9.00000000000000, 0.000000000000000, 0.500000000000000 ) );
#348 = AXIS2_PLACEMENT_3D( '', #376, #377, #378 );
#349 = COLOUR_RGB( '', 0.200000002980232, 0.200000002980232, 0.200000002980232 );
#350 = CARTESIAN_POINT( '', ( 0.000000000000000, 0.000000000000000, 1.00000000000000 ) );
#351 = DIRECTION( '', ( 0.000000000000000, 0.000000000000000, 1.00000000000000 ) );
#352 = DIRECTION( '', ( 1.00000000000000, 0.000000000000000, 0.000000000000000 ) );
#353 = CARTESIAN_POINT( '', ( 0.000000000000000, 0.000000000000000, 0.000000000000000 ) );
#354 = DIRECTION( '', ( 0.000000000000000, 0.000000000000000, 1.00000000000000 ) );
#355 = DIRECTION( '', ( 1.00000000000000, 0.000000000000000, 0.000000000000000 ) );
#356 = DIRECTION( '', ( 0.000000000000000, 0.000000000000000, -1.00000000000000 ) );
#357 = DIRECTION( '', ( 0.499999999999999, 0.866025403784439, 0.000000000000000 ) );
#358 = DIRECTION( '', ( 0.000000000000000, 0.000000000000000, -1.00000000000000 ) );
#359 = CARTESIAN_POINT( '', ( 0.000000000000000, 0.000000000000000, 19.0000000000000 ) );
#360 = DIRECTION( '', ( 0.000000000000000, 0.000000000000000, 1.00000000000000 ) );
#361 = DIRECTION( '', ( 0.000000000000000, -1.00000000000000, 0.000000000000000 ) );
#362 = CARTESIAN_POINT( '', ( 0.000000000000000, 0.000000000000000, 60.0000000000000 ) );
#363 = DIRECTION( '', ( 0.000000000000000, 0.000000000000000, 1.00000000000000 ) );
#364 = DIRECTION( '', ( 1.00000000000000, 0.000000000000000, 0.000000000000000 ) );
#365 = CARTESIAN_POINT( '', ( 0.000000000000000, 0.000000000000000, 58.5000000000000 ) );
#366 = DIRECTION( '', ( 0.000000000000000, 0.000000000000000, 1.00000000000000 ) );
#367 = DIRECTION( '', ( 1.00000000000000, 0.000000000000000, 0.000000000000000 ) );
#368 = CARTESIAN_POINT( '', ( 0.000000000000000, 0.000000000000000, 35.0000000000000 ) );
#369 = DIRECTION( '', ( 0.000000000000000, 0.000000000000000, 1.00000000000000 ) );
#370 = DIRECTION( '', ( 1.00000000000000, 0.000000000000000, 0.000000000000000 ) );
#371 = DIRECTION( '', ( 0.499999999999999, -0.866025403784439, 0.000000000000000 ) );
#372 = DIRECTION( '', ( 0.000000000000000, 0.000000000000000, -1.00000000000000 ) );
#373 = CARTESIAN_POINT( '', ( 0.000000000000000, 0.000000000000000, 0.000000000000000 ) );
#374 = DIRECTION( '', ( 0.000000000000000, 0.000000000000000, 1.00000000000000 ) );
#375 = DIRECTION( '', ( 1.00000000000000, 0.000000000000000, 0.000000000000000 ) );
#376 = CARTESIAN_POINT( '', ( 0.000000000000000, 0.000000000000000, 0.500000000000000 ) );
#377 = DIRECTION( '', ( 0.000000000000000, 0.000000000000000, 1.00000000000000 ) );
#378 = DIRECTION( '', ( 1.00000000000000, 0.000000000000000, 0.000000000000000 ) );
ENDSEC;
END-ISO-10303-21;
