ISO-10303-21;
HEADER;
FILE_DESCRIPTION( ( 'Unknown' ), '1' );
FILE_NAME( 'f:/¼È¦s/SU-3D/SU03-3D/SU03-1240.stp', 'Unknown', ( 'Unknown' ), ( 'Unknown' ), 'XStep 1.0', 'Unknown', '  ' );
FILE_SCHEMA( ( 'CONFIG_CONTROL_DESIGN' ) );
ENDSEC;
DATA;
#1 = DESIGN_CONTEXT( '', #27, 'design' );
#2 = APPLICATION_PROTOCOL_DEFINITION( 'INTERNATIONAL STANDARD', 'config_control_design', 1994, #27 );
#3 = PRODUCT_CATEGORY_RELATIONSHIP( 'NONE', 'NONE', #28, #29 );
#4 = DATE_AND_TIME( #30, #31 );
#5 = DATE_TIME_ROLE( 'creation_date' );
#6 = DATE_TIME_ROLE( 'classification_date' );
#7 = PERSON_AND_ORGANIZATION_ROLE( 'creator' );
#8 = PERSON_AND_ORGANIZATION_ROLE( 'design_supplier' );
#9 = PERSON_AND_ORGANIZATION_ROLE( 'classification_officer' );
#10 = PERSON_AND_ORGANIZATION_ROLE( 'design_owner' );
#11 = APPROVAL_PERSON_ORGANIZATION( #32, #33, #34 );
#12 = APPROVAL_DATE_TIME( #4, #33 );
#13 = CC_DESIGN_APPROVAL( #33, ( #35, #36, #37 ) );
#14 = CC_DESIGN_DATE_AND_TIME_ASSIGNMENT( #4, #5, ( #37 ) );
#15 = CC_DESIGN_DATE_AND_TIME_ASSIGNMENT( #4, #6, ( #35 ) );
#16 = CC_DESIGN_PERSON_AND_ORGANIZATION_ASSIGNMENT( #32, #10, ( #38 ) );
#17 = CC_DESIGN_PERSON_AND_ORGANIZATION_ASSIGNMENT( #32, #7, ( #37 ) );
#18 = CC_DESIGN_PERSON_AND_ORGANIZATION_ASSIGNMENT( #32, #7, ( #36 ) );
#19 = CC_DESIGN_PERSON_AND_ORGANIZATION_ASSIGNMENT( #32, #8, ( #36 ) );
#20 = CC_DESIGN_SECURITY_CLASSIFICATION( #35, ( #36 ) );
#21 = CC_DESIGN_PERSON_AND_ORGANIZATION_ASSIGNMENT( #32, #9, ( #35 ) );
#22 = SHAPE_DEFINITION_REPRESENTATION( #39, #40 );
#23 =  ( GEOMETRIC_REPRESENTATION_CONTEXT( 3 )GLOBAL_UNCERTAINTY_ASSIGNED_CONTEXT( ( #43 ) )GLOBAL_UNIT_ASSIGNED_CONTEXT( ( #45, #46, #47 ) )REPRESENTATION_CONTEXT( 'NONE', 'WORKSPACE' ) );
#27 = APPLICATION_CONTEXT( 'CONFIGURATION CONTROLLED 3D DESIGNS OF MECHANICAL PARTS AND ASSEMBLIES' );
#28 = PRODUCT_CATEGORY( 'part', 'NONE' );
#29 = PRODUCT_RELATED_PRODUCT_CATEGORY( 'detail', ' ', ( #38 ) );
#30 = CALENDAR_DATE( 2009, 9, 10 );
#31 = LOCAL_TIME( 10, 20, 39.0000000000000, #49 );
#32 = PERSON_AND_ORGANIZATION( #50, #51 );
#33 = APPROVAL( #52, 'SOLID MODEL' );
#34 = APPROVAL_ROLE( 'APPROVED' );
#35 = SECURITY_CLASSIFICATION( '', '', #53 );
#36 = PRODUCT_DEFINITION_FORMATION_WITH_SPECIFIED_SOURCE( ' ', 'NONE', #38, .NOT_KNOWN. );
#37 = PRODUCT_DEFINITION( 'NONE', 'NONE', #36, #1 );
#38 = PRODUCT( '1', '1', 'PART-1-DESC', ( #54 ) );
#39 = PRODUCT_DEFINITION_SHAPE( 'NONE', 'NONE', #37 );
#40 = ADVANCED_BREP_SHAPE_REPRESENTATION( '1', ( #55, #56 ), #23 );
#43 = UNCERTAINTY_MEASURE_WITH_UNIT( LENGTH_MEASURE( 0.00100000000000000 ), #45, '', '' );
#45 =  ( CONVERSION_BASED_UNIT( 'MILLIMETRE', #59 )LENGTH_UNIT(  )NAMED_UNIT( #62 ) );
#46 =  ( NAMED_UNIT( #64 )PLANE_ANGLE_UNIT(  )SI_UNIT( $, .RADIAN. ) );
#47 =  ( NAMED_UNIT( #64 )SOLID_ANGLE_UNIT(  )SI_UNIT( $, .STERADIAN. ) );
#49 = COORDINATED_UNIVERSAL_TIME_OFFSET( 8, 0, .AHEAD. );
#50 = PERSON( '', 'UNSPECIFIED', $, $, $, $ );
#51 = ORGANIZATION( 'UNSPECIFIED', 'UNSPECIFIED', 'UNSPECIFIED' );
#52 = APPROVAL_STATUS( 'approved' );
#53 = SECURITY_CLASSIFICATION_LEVEL( 'unclassified' );
#54 = MECHANICAL_CONTEXT( '', #27, 'mechanical' );
#55 = MANIFOLD_SOLID_BREP( '1', #70 );
#56 = AXIS2_PLACEMENT_3D( '', #71, #72, #73 );
#59 = LENGTH_MEASURE_WITH_UNIT( LENGTH_MEASURE( 1.00000000000000 ), #74 );
#62 = DIMENSIONAL_EXPONENTS( 1.00000000000000, 0.000000000000000, 0.000000000000000, 0.000000000000000, 0.000000000000000, 0.000000000000000, 0.000000000000000 );
#64 = DIMENSIONAL_EXPONENTS( 0.000000000000000, 0.000000000000000, 0.000000000000000, 0.000000000000000, 0.000000000000000, 0.000000000000000, 0.000000000000000 );
#70 = CLOSED_SHELL( '', ( #75, #76, #77, #78, #79, #80, #81, #82, #83, #84, #85, #86, #87, #88 ) );
#71 = CARTESIAN_POINT( '', ( 0.000000000000000, 0.000000000000000, 0.000000000000000 ) );
#72 = DIRECTION( '', ( 0.000000000000000, 0.000000000000000, 1.00000000000000 ) );
#73 = DIRECTION( '', ( 1.00000000000000, 0.000000000000000, 0.000000000000000 ) );
#74 =  ( NAMED_UNIT( #62 )LENGTH_UNIT(  )SI_UNIT( .MILLI., .METRE. ) );
#75 = ADVANCED_FACE( '', ( #90, #91 ), #92, .F. );
#76 = ADVANCED_FACE( '', ( #93, #94 ), #95, .F. );
#77 = ADVANCED_FACE( '', ( #96, #97 ), #98, .F. );
#78 = ADVANCED_FACE( '', ( #99, #100 ), #101, .F. );
#79 = ADVANCED_FACE( '', ( #102, #103 ), #104, .F. );
#80 = ADVANCED_FACE( '', ( #105, #106 ), #107, .F. );
#81 = ADVANCED_FACE( '', ( #108, #109 ), #110, .T. );
#82 = ADVANCED_FACE( '', ( #111, #112 ), #113, .T. );
#83 = ADVANCED_FACE( '', ( #114, #115 ), #116, .T. );
#84 = ADVANCED_FACE( '', ( #117, #118 ), #119, .T. );
#85 = ADVANCED_FACE( '', ( #120, #121 ), #122, .T. );
#86 = ADVANCED_FACE( '', ( #123, #124 ), #125, .F. );
#87 = ADVANCED_FACE( '', ( #126, #127 ), #128, .T. );
#88 = ADVANCED_FACE( '', ( #129, #130 ), #131, .T. );
#90 = FACE_OUTER_BOUND( '', #132, .T. );
#91 = FACE_BOUND( '', #133, .T. );
#92 = PLANE( '', #134 );
#93 = FACE_OUTER_BOUND( '', #135, .T. );
#94 = FACE_BOUND( '', #136, .T. );
#95 = CONICAL_SURFACE( '', #137, 6.00000000000000, 0.785398163397448 );
#96 = FACE_BOUND( '', #138, .T. );
#97 = FACE_OUTER_BOUND( '', #139, .T. );
#98 = PLANE( '', #140 );
#99 = FACE_OUTER_BOUND( '', #141, .T. );
#100 = FACE_OUTER_BOUND( '', #142, .T. );
#101 = CYLINDRICAL_SURFACE( '', #143, 10.0000000000000 );
#102 = FACE_OUTER_BOUND( '', #144, .T. );
#103 = FACE_OUTER_BOUND( '', #145, .T. );
#104 = CYLINDRICAL_SURFACE( '', #146, 6.00000000000000 );
#105 = FACE_BOUND( '', #147, .T. );
#106 = FACE_OUTER_BOUND( '', #148, .T. );
#107 = CONICAL_SURFACE( '', #149, 11.0000000000000, 0.785398163397448 );
#108 = FACE_OUTER_BOUND( '', #150, .T. );
#109 = FACE_OUTER_BOUND( '', #151, .T. );
#110 = TOROIDAL_SURFACE( '', #152, 29.0000000000000, 1.00000000000000 );
#111 = FACE_OUTER_BOUND( '', #153, .T. );
#112 = FACE_OUTER_BOUND( '', #154, .T. );
#113 = CYLINDRICAL_SURFACE( '', #155, 30.0000000000000 );
#114 = FACE_BOUND( '', #156, .T. );
#115 = FACE_OUTER_BOUND( '', #157, .T. );
#116 = PLANE( '', #158 );
#117 = FACE_BOUND( '', #159, .T. );
#118 = FACE_OUTER_BOUND( '', #160, .T. );
#119 = PLANE( '', #161 );
#120 = FACE_OUTER_BOUND( '', #162, .T. );
#121 = FACE_OUTER_BOUND( '', #163, .T. );
#122 = CYLINDRICAL_SURFACE( '', #164, 20.0000000000000 );
#123 = FACE_OUTER_BOUND( '', #165, .T. );
#124 = FACE_OUTER_BOUND( '', #166, .T. );
#125 = TOROIDAL_SURFACE( '', #167, 20.0000000000000, 1.00000000000000 );
#126 = FACE_OUTER_BOUND( '', #168, .T. );
#127 = FACE_OUTER_BOUND( '', #169, .T. );
#128 = TOROIDAL_SURFACE( '', #170, 19.0000000000000, 1.00000000000000 );
#129 = FACE_OUTER_BOUND( '', #171, .T. );
#130 = FACE_OUTER_BOUND( '', #172, .T. );
#131 = TOROIDAL_SURFACE( '', #173, 29.0000000000000, 1.00000000000000 );
#132 = EDGE_LOOP( '', ( #174 ) );
#133 = EDGE_LOOP( '', ( #175 ) );
#134 = AXIS2_PLACEMENT_3D( '', #176, #177, #178 );
#135 = EDGE_LOOP( '', ( #179 ) );
#136 = EDGE_LOOP( '', ( #180 ) );
#137 = AXIS2_PLACEMENT_3D( '', #181, #182, #183 );
#138 = EDGE_LOOP( '', ( #184 ) );
#139 = EDGE_LOOP( '', ( #185 ) );
#140 = AXIS2_PLACEMENT_3D( '', #186, #187, #188 );
#141 = EDGE_LOOP( '', ( #189 ) );
#142 = EDGE_LOOP( '', ( #190 ) );
#143 = AXIS2_PLACEMENT_3D( '', #191, #192, #193 );
#144 = EDGE_LOOP( '', ( #194 ) );
#145 = EDGE_LOOP( '', ( #195 ) );
#146 = AXIS2_PLACEMENT_3D( '', #196, #197, #198 );
#147 = EDGE_LOOP( '', ( #199 ) );
#148 = EDGE_LOOP( '', ( #200 ) );
#149 = AXIS2_PLACEMENT_3D( '', #201, #202, #203 );
#150 = EDGE_LOOP( '', ( #204 ) );
#151 = EDGE_LOOP( '', ( #205 ) );
#152 = AXIS2_PLACEMENT_3D( '', #206, #207, #208 );
#153 = EDGE_LOOP( '', ( #209 ) );
#154 = EDGE_LOOP( '', ( #210 ) );
#155 = AXIS2_PLACEMENT_3D( '', #211, #212, #213 );
#156 = EDGE_LOOP( '', ( #214 ) );
#157 = EDGE_LOOP( '', ( #215 ) );
#158 = AXIS2_PLACEMENT_3D( '', #216, #217, #218 );
#159 = EDGE_LOOP( '', ( #219 ) );
#160 = EDGE_LOOP( '', ( #220 ) );
#161 = AXIS2_PLACEMENT_3D( '', #221, #222, #223 );
#162 = EDGE_LOOP( '', ( #224 ) );
#163 = EDGE_LOOP( '', ( #225 ) );
#164 = AXIS2_PLACEMENT_3D( '', #226, #227, #228 );
#165 = EDGE_LOOP( '', ( #229 ) );
#166 = EDGE_LOOP( '', ( #230 ) );
#167 = AXIS2_PLACEMENT_3D( '', #231, #232, #233 );
#168 = EDGE_LOOP( '', ( #234 ) );
#169 = EDGE_LOOP( '', ( #235 ) );
#170 = AXIS2_PLACEMENT_3D( '', #236, #237, #238 );
#171 = EDGE_LOOP( '', ( #239 ) );
#172 = EDGE_LOOP( '', ( #240 ) );
#173 = AXIS2_PLACEMENT_3D( '', #241, #242, #243 );
#174 = ORIENTED_EDGE( '', *, *, #244, .T. );
#175 = ORIENTED_EDGE( '', *, *, #245, .F. );
#176 = CARTESIAN_POINT( '', ( 0.000000000000000, 0.000000000000000, 40.0000000000000 ) );
#177 = DIRECTION( '', ( 0.000000000000000, 0.000000000000000, -1.00000000000000 ) );
#178 = DIRECTION( '', ( -1.00000000000000, 0.000000000000000, 0.000000000000000 ) );
#179 = ORIENTED_EDGE( '', *, *, #246, .F. );
#180 = ORIENTED_EDGE( '', *, *, #247, .F. );
#181 = CARTESIAN_POINT( '', ( 0.000000000000000, 0.000000000000000, 1.00000000000000 ) );
#182 = DIRECTION( '', ( -0.000000000000000, 0.000000000000000, -1.00000000000000 ) );
#183 = DIRECTION( '', ( -1.00000000000000, 0.000000000000000, 0.000000000000000 ) );
#184 = ORIENTED_EDGE( '', *, *, #248, .T. );
#185 = ORIENTED_EDGE( '', *, *, #249, .T. );
#186 = CARTESIAN_POINT( '', ( 0.000000000000000, 0.000000000000000, 12.0000000000000 ) );
#187 = DIRECTION( '', ( 0.000000000000000, 0.000000000000000, -1.00000000000000 ) );
#188 = DIRECTION( '', ( -1.00000000000000, 0.000000000000000, 0.000000000000000 ) );
#189 = ORIENTED_EDGE( '', *, *, #250, .T. );
#190 = ORIENTED_EDGE( '', *, *, #249, .F. );
#191 = CARTESIAN_POINT( '', ( 0.000000000000000, 0.000000000000000, 50.0000000000000 ) );
#192 = DIRECTION( '', ( -0.000000000000000, -0.000000000000000, 1.00000000000000 ) );
#193 = DIRECTION( '', ( 0.000000000000000, -1.00000000000000, 0.000000000000000 ) );
#194 = ORIENTED_EDGE( '', *, *, #247, .T. );
#195 = ORIENTED_EDGE( '', *, *, #248, .F. );
#196 = CARTESIAN_POINT( '', ( 0.000000000000000, 0.000000000000000, 12.0000000000000 ) );
#197 = DIRECTION( '', ( -0.000000000000000, -0.000000000000000, 1.00000000000000 ) );
#198 = DIRECTION( '', ( 0.000000000000000, -1.00000000000000, 0.000000000000000 ) );
#199 = ORIENTED_EDGE( '', *, *, #250, .F. );
#200 = ORIENTED_EDGE( '', *, *, #251, .F. );
#201 = CARTESIAN_POINT( '', ( 0.000000000000000, 0.000000000000000, 50.0000000000000 ) );
#202 = DIRECTION( '', ( -0.000000000000000, -0.000000000000000, 1.00000000000000 ) );
#203 = DIRECTION( '', ( 1.00000000000000, 0.000000000000000, 0.000000000000000 ) );
#204 = ORIENTED_EDGE( '', *, *, #244, .F. );
#205 = ORIENTED_EDGE( '', *, *, #252, .F. );
#206 = CARTESIAN_POINT( '', ( 0.000000000000000, 0.000000000000000, 39.0000000000000 ) );
#207 = DIRECTION( '', ( 0.000000000000000, 0.000000000000000, -1.00000000000000 ) );
#208 = DIRECTION( '', ( -1.00000000000000, 0.000000000000000, 0.000000000000000 ) );
#209 = ORIENTED_EDGE( '', *, *, #252, .T. );
#210 = ORIENTED_EDGE( '', *, *, #253, .T. );
#211 = CARTESIAN_POINT( '', ( 0.000000000000000, 0.000000000000000, 40.0000000000000 ) );
#212 = DIRECTION( '', ( -0.000000000000000, -0.000000000000000, 1.00000000000000 ) );
#213 = DIRECTION( '', ( -1.00000000000000, 0.000000000000000, 0.000000000000000 ) );
#214 = ORIENTED_EDGE( '', *, *, #246, .T. );
#215 = ORIENTED_EDGE( '', *, *, #254, .T. );
#216 = CARTESIAN_POINT( '', ( 0.000000000000000, 0.000000000000000, 0.000000000000000 ) );
#217 = DIRECTION( '', ( 0.000000000000000, 0.000000000000000, -1.00000000000000 ) );
#218 = DIRECTION( '', ( -1.00000000000000, 0.000000000000000, 0.000000000000000 ) );
#219 = ORIENTED_EDGE( '', *, *, #251, .T. );
#220 = ORIENTED_EDGE( '', *, *, #255, .T. );
#221 = CARTESIAN_POINT( '', ( 0.000000000000000, 0.000000000000000, 50.0000000000000 ) );
#222 = DIRECTION( '', ( 0.000000000000000, 0.000000000000000, 1.00000000000000 ) );
#223 = DIRECTION( '', ( 1.00000000000000, 0.000000000000000, 0.000000000000000 ) );
#224 = ORIENTED_EDGE( '', *, *, #256, .T. );
#225 = ORIENTED_EDGE( '', *, *, #257, .F. );
#226 = CARTESIAN_POINT( '', ( 0.000000000000000, 0.000000000000000, 50.0000000000000 ) );
#227 = DIRECTION( '', ( -0.000000000000000, -0.000000000000000, 1.00000000000000 ) );
#228 = DIRECTION( '', ( -1.00000000000000, 0.000000000000000, 0.000000000000000 ) );
#229 = ORIENTED_EDGE( '', *, *, #245, .T. );
#230 = ORIENTED_EDGE( '', *, *, #257, .T. );
#231 = CARTESIAN_POINT( '', ( 0.000000000000000, 0.000000000000000, 40.0000000000000 ) );
#232 = DIRECTION( '', ( 0.000000000000000, 0.000000000000000, 1.00000000000000 ) );
#233 = DIRECTION( '', ( 1.00000000000000, 0.000000000000000, 0.000000000000000 ) );
#234 = ORIENTED_EDGE( '', *, *, #256, .F. );
#235 = ORIENTED_EDGE( '', *, *, #255, .F. );
#236 = CARTESIAN_POINT( '', ( 0.000000000000000, 0.000000000000000, 49.0000000000000 ) );
#237 = DIRECTION( '', ( 0.000000000000000, 0.000000000000000, 1.00000000000000 ) );
#238 = DIRECTION( '', ( 1.00000000000000, 0.000000000000000, 0.000000000000000 ) );
#239 = ORIENTED_EDGE( '', *, *, #253, .F. );
#240 = ORIENTED_EDGE( '', *, *, #254, .F. );
#241 = CARTESIAN_POINT( '', ( 0.000000000000000, 0.000000000000000, 1.00000000000000 ) );
#242 = DIRECTION( '', ( 0.000000000000000, 0.000000000000000, -1.00000000000000 ) );
#243 = DIRECTION( '', ( -1.00000000000000, 0.000000000000000, 0.000000000000000 ) );
#244 = EDGE_CURVE( '', #258, #258, #259, .F. );
#245 = EDGE_CURVE( '', #260, #260, #261, .F. );
#246 = EDGE_CURVE( '', #262, #262, #263, .F. );
#247 = EDGE_CURVE( '', #264, #264, #265, .T. );
#248 = EDGE_CURVE( '', #266, #266, #267, .T. );
#249 = EDGE_CURVE( '', #268, #268, #269, .T. );
#250 = EDGE_CURVE( '', #270, #270, #271, .T. );
#251 = EDGE_CURVE( '', #272, #272, #273, .F. );
#252 = EDGE_CURVE( '', #274, #274, #275, .T. );
#253 = EDGE_CURVE( '', #276, #276, #277, .F. );
#254 = EDGE_CURVE( '', #278, #278, #279, .T. );
#255 = EDGE_CURVE( '', #280, #280, #281, .T. );
#256 = EDGE_CURVE( '', #282, #282, #283, .F. );
#257 = EDGE_CURVE( '', #284, #284, #285, .T. );
#258 = VERTEX_POINT( '', #286 );
#259 = CIRCLE( '', #287, 29.0000000000000 );
#260 = VERTEX_POINT( '', #288 );
#261 = CIRCLE( '', #289, 21.0000000000000 );
#262 = VERTEX_POINT( '', #290 );
#263 = CIRCLE( '', #291, 7.00000000000000 );
#264 = VERTEX_POINT( '', #292 );
#265 = CIRCLE( '', #293, 6.00000000000000 );
#266 = VERTEX_POINT( '', #294 );
#267 = CIRCLE( '', #295, 6.00000000000000 );
#268 = VERTEX_POINT( '', #296 );
#269 = CIRCLE( '', #297, 10.0000000000000 );
#270 = VERTEX_POINT( '', #298 );
#271 = CIRCLE( '', #299, 10.0000000000000 );
#272 = VERTEX_POINT( '', #300 );
#273 = CIRCLE( '', #301, 11.0000000000000 );
#274 = VERTEX_POINT( '', #302 );
#275 = CIRCLE( '', #303, 30.0000000000000 );
#276 = VERTEX_POINT( '', #304 );
#277 = CIRCLE( '', #305, 30.0000000000000 );
#278 = VERTEX_POINT( '', #306 );
#279 = CIRCLE( '', #307, 29.0000000000000 );
#280 = VERTEX_POINT( '', #308 );
#281 = CIRCLE( '', #309, 19.0000000000000 );
#282 = VERTEX_POINT( '', #310 );
#283 = CIRCLE( '', #311, 20.0000000000000 );
#284 = VERTEX_POINT( '', #312 );
#285 = CIRCLE( '', #313, 20.0000000000000 );
#286 = CARTESIAN_POINT( '', ( -29.0000000000000, 0.000000000000000, 40.0000000000000 ) );
#287 = AXIS2_PLACEMENT_3D( '', #314, #315, #316 );
#288 = CARTESIAN_POINT( '', ( -21.0000000000000, 0.000000000000000, 40.0000000000000 ) );
#289 = AXIS2_PLACEMENT_3D( '', #317, #318, #319 );
#290 = CARTESIAN_POINT( '', ( -7.00000000000000, 0.000000000000000, 0.000000000000000 ) );
#291 = AXIS2_PLACEMENT_3D( '', #320, #321, #322 );
#292 = CARTESIAN_POINT( '', ( -6.00000000000000, 0.000000000000000, 1.00000000000000 ) );
#293 = AXIS2_PLACEMENT_3D( '', #323, #324, #325 );
#294 = CARTESIAN_POINT( '', ( -6.00000000000000, 0.000000000000000, 12.0000000000000 ) );
#295 = AXIS2_PLACEMENT_3D( '', #326, #327, #328 );
#296 = CARTESIAN_POINT( '', ( 0.000000000000000, -10.0000000000000, 12.0000000000000 ) );
#297 = AXIS2_PLACEMENT_3D( '', #329, #330, #331 );
#298 = CARTESIAN_POINT( '', ( 10.0000000000000, 0.000000000000000, 49.0000000000000 ) );
#299 = AXIS2_PLACEMENT_3D( '', #332, #333, #334 );
#300 = CARTESIAN_POINT( '', ( 11.0000000000000, 0.000000000000000, 50.0000000000000 ) );
#301 = AXIS2_PLACEMENT_3D( '', #335, #336, #337 );
#302 = CARTESIAN_POINT( '', ( -30.0000000000000, 0.000000000000000, 39.0000000000000 ) );
#303 = AXIS2_PLACEMENT_3D( '', #338, #339, #340 );
#304 = CARTESIAN_POINT( '', ( -30.0000000000000, 0.000000000000000, 1.00000000000000 ) );
#305 = AXIS2_PLACEMENT_3D( '', #341, #342, #343 );
#306 = CARTESIAN_POINT( '', ( -29.0000000000000, 0.000000000000000, 0.000000000000000 ) );
#307 = AXIS2_PLACEMENT_3D( '', #344, #345, #346 );
#308 = CARTESIAN_POINT( '', ( 19.0000000000000, 0.000000000000000, 50.0000000000000 ) );
#309 = AXIS2_PLACEMENT_3D( '', #347, #348, #349 );
#310 = CARTESIAN_POINT( '', ( 20.0000000000000, 0.000000000000000, 49.0000000000000 ) );
#311 = AXIS2_PLACEMENT_3D( '', #350, #351, #352 );
#312 = CARTESIAN_POINT( '', ( -20.0000000000000, 0.000000000000000, 41.0000000000000 ) );
#313 = AXIS2_PLACEMENT_3D( '', #353, #354, #355 );
#314 = CARTESIAN_POINT( '', ( 0.000000000000000, 0.000000000000000, 40.0000000000000 ) );
#315 = DIRECTION( '', ( 0.000000000000000, 0.000000000000000, -1.00000000000000 ) );
#316 = DIRECTION( '', ( -1.00000000000000, 0.000000000000000, 0.000000000000000 ) );
#317 = CARTESIAN_POINT( '', ( 0.000000000000000, 0.000000000000000, 40.0000000000000 ) );
#318 = DIRECTION( '', ( 0.000000000000000, 0.000000000000000, -1.00000000000000 ) );
#319 = DIRECTION( '', ( -1.00000000000000, 0.000000000000000, 0.000000000000000 ) );
#320 = CARTESIAN_POINT( '', ( 0.000000000000000, 0.000000000000000, 0.000000000000000 ) );
#321 = DIRECTION( '', ( 0.000000000000000, 0.000000000000000, -1.00000000000000 ) );
#322 = DIRECTION( '', ( -1.00000000000000, 0.000000000000000, 0.000000000000000 ) );
#323 = CARTESIAN_POINT( '', ( 0.000000000000000, 0.000000000000000, 1.00000000000000 ) );
#324 = DIRECTION( '', ( 0.000000000000000, 0.000000000000000, -1.00000000000000 ) );
#325 = DIRECTION( '', ( -1.00000000000000, 0.000000000000000, 0.000000000000000 ) );
#326 = CARTESIAN_POINT( '', ( 0.000000000000000, 0.000000000000000, 12.0000000000000 ) );
#327 = DIRECTION( '', ( 0.000000000000000, 0.000000000000000, -1.00000000000000 ) );
#328 = DIRECTION( '', ( -1.00000000000000, 0.000000000000000, 0.000000000000000 ) );
#329 = CARTESIAN_POINT( '', ( 0.000000000000000, 0.000000000000000, 12.0000000000000 ) );
#330 = DIRECTION( '', ( 0.000000000000000, 0.000000000000000, 1.00000000000000 ) );
#331 = DIRECTION( '', ( 0.000000000000000, -1.00000000000000, 0.000000000000000 ) );
#332 = CARTESIAN_POINT( '', ( 0.000000000000000, 0.000000000000000, 49.0000000000000 ) );
#333 = DIRECTION( '', ( 0.000000000000000, 0.000000000000000, 1.00000000000000 ) );
#334 = DIRECTION( '', ( 1.00000000000000, 0.000000000000000, 0.000000000000000 ) );
#335 = CARTESIAN_POINT( '', ( 0.000000000000000, 0.000000000000000, 50.0000000000000 ) );
#336 = DIRECTION( '', ( 0.000000000000000, 0.000000000000000, 1.00000000000000 ) );
#337 = DIRECTION( '', ( 1.00000000000000, 0.000000000000000, 0.000000000000000 ) );
#338 = CARTESIAN_POINT( '', ( 0.000000000000000, 0.000000000000000, 39.0000000000000 ) );
#339 = DIRECTION( '', ( 0.000000000000000, 0.000000000000000, -1.00000000000000 ) );
#340 = DIRECTION( '', ( -1.00000000000000, 0.000000000000000, 0.000000000000000 ) );
#341 = CARTESIAN_POINT( '', ( 0.000000000000000, 0.000000000000000, 1.00000000000000 ) );
#342 = DIRECTION( '', ( 0.000000000000000, 0.000000000000000, -1.00000000000000 ) );
#343 = DIRECTION( '', ( -1.00000000000000, 0.000000000000000, 0.000000000000000 ) );
#344 = CARTESIAN_POINT( '', ( 0.000000000000000, 0.000000000000000, 0.000000000000000 ) );
#345 = DIRECTION( '', ( 0.000000000000000, 0.000000000000000, -1.00000000000000 ) );
#346 = DIRECTION( '', ( -1.00000000000000, 0.000000000000000, 0.000000000000000 ) );
#347 = CARTESIAN_POINT( '', ( 0.000000000000000, 0.000000000000000, 50.0000000000000 ) );
#348 = DIRECTION( '', ( 0.000000000000000, 0.000000000000000, 1.00000000000000 ) );
#349 = DIRECTION( '', ( 1.00000000000000, 0.000000000000000, 0.000000000000000 ) );
#350 = CARTESIAN_POINT( '', ( 0.000000000000000, 0.000000000000000, 49.0000000000000 ) );
#351 = DIRECTION( '', ( 0.000000000000000, 0.000000000000000, 1.00000000000000 ) );
#352 = DIRECTION( '', ( 1.00000000000000, 0.000000000000000, 0.000000000000000 ) );
#353 = CARTESIAN_POINT( '', ( 0.000000000000000, 0.000000000000000, 41.0000000000000 ) );
#354 = DIRECTION( '', ( 0.000000000000000, 0.000000000000000, -1.00000000000000 ) );
#355 = DIRECTION( '', ( -1.00000000000000, 0.000000000000000, 0.000000000000000 ) );
ENDSEC;
END-ISO-10303-21;
