ISO-10303-21;
HEADER;
FILE_DESCRIPTION( ( 'Unknown' ), '1' );
FILE_NAME( 'D:/\X2\66AB5B58\X0\/\X2\4FEE653966AB5B58\X0\/SVF-3D/SVF-S(\X2\7279522596444EF6\X0\)/S04/SVF-S04-100-29.stp', 'Unknown', ( 'Unknown' ), ( 'Unknown' ), 'PSStep 17.0.49', 'Unknown', '  ' );
FILE_SCHEMA( ( 'AUTOMOTIVE_DESIGN { 1 0 10303 214 1 1 1 1 }' ) );
ENDSEC;
DATA;
#1 = PRODUCT_DEFINITION_CONTEXT( '', #14, 'design' );
#2 = APPLICATION_PROTOCOL_DEFINITION( 'international standard', 'automotive_design', 2001, #14 );
#3 = PRODUCT_CATEGORY_RELATIONSHIP( 'NONE', 'NONE', #15, #16 );
#4 = SHAPE_DEFINITION_REPRESENTATION( #17, #18 );
#5 = PRODUCT_CATEGORY_RELATIONSHIP( 'NONE', 'NONE', #15, #19 );
#6 = CONTEXT_DEPENDENT_SHAPE_REPRESENTATION( #20, #21 );
#7 = SHAPE_DEFINITION_REPRESENTATION( #22, #23 );
#8 = SHAPE_REPRESENTATION_RELATIONSHIP( 'NONE', 'NONE', #23, #24 );
#9 = MECHANICAL_DESIGN_GEOMETRIC_PRESENTATION_REPRESENTATION( ' ', ( #25, #26, #27, #28, #29, #30, #31, #32 ), #10 );
#10 =  ( GEOMETRIC_REPRESENTATION_CONTEXT( 3 )GLOBAL_UNCERTAINTY_ASSIGNED_CONTEXT( ( #35 ) )GLOBAL_UNIT_ASSIGNED_CONTEXT( ( #37, #38, #39 ) )REPRESENTATION_CONTEXT( 'NONE', 'WORKSPACE' ) );
#14 = APPLICATION_CONTEXT( 'core data for automotive mechanical design processes' );
#15 = PRODUCT_CATEGORY( 'part', 'NONE' );
#16 = PRODUCT_RELATED_PRODUCT_CATEGORY( 'detail', ' ', ( #41 ) );
#17 = PRODUCT_DEFINITION_SHAPE( 'NONE', 'NONE', #42 );
#18 = SHAPE_REPRESENTATION( 'Assem1', ( #43, #44 ), #45 );
#19 = PRODUCT_RELATED_PRODUCT_CATEGORY( 'detail', ' ', ( #46 ) );
#20 = ( REPRESENTATION_RELATIONSHIP( '', '', #23, #18 )REPRESENTATION_RELATIONSHIP_WITH_TRANSFORMATION( #49 )SHAPE_REPRESENTATION_RELATIONSHIP(  ) );
#21 = PRODUCT_DEFINITION_SHAPE( 'NAUO-PROD-DEF', 'NAUO-PROD-DEF', #51 );
#22 = PRODUCT_DEFINITION_SHAPE( 'NONE', 'NONE', #52 );
#23 = SHAPE_REPRESENTATION( 'SVF-S04-100-29', ( #43 ), #45 );
#24 = ADVANCED_BREP_SHAPE_REPRESENTATION( 'SVF-S04-100-29', ( #53 ), #10 );
#25 = STYLED_ITEM( '', ( #54 ), #55 );
#26 = STYLED_ITEM( '', ( #56 ), #57 );
#27 = STYLED_ITEM( '', ( #58 ), #59 );
#28 = STYLED_ITEM( '', ( #60 ), #61 );
#29 = STYLED_ITEM( '', ( #62 ), #63 );
#30 = STYLED_ITEM( '', ( #64 ), #65 );
#31 = STYLED_ITEM( '', ( #66 ), #67 );
#32 = STYLED_ITEM( '', ( #68 ), #69 );
#35 = UNCERTAINTY_MEASURE_WITH_UNIT( LENGTH_MEASURE( 0.00100000000000000 ), #37, '', '' );
#37 =  ( CONVERSION_BASED_UNIT( 'MILLIMETRE', #72 )LENGTH_UNIT(  )NAMED_UNIT( #75 ) );
#38 =  ( NAMED_UNIT( #77 )PLANE_ANGLE_UNIT(  )SI_UNIT( $, .RADIAN. ) );
#39 =  ( NAMED_UNIT( #77 )SI_UNIT( $, .STERADIAN. )SOLID_ANGLE_UNIT(  ) );
#41 = PRODUCT( 'Assem1', 'Assem1', 'PART-Assem1-DESC', ( #83 ) );
#42 = PRODUCT_DEFINITION( 'NONE', 'NONE', #84, #1 );
#43 = AXIS2_PLACEMENT_3D( '', #85, #86, #87 );
#44 = AXIS2_PLACEMENT_3D( '', #88, #89, #90 );
#45 =  ( GEOMETRIC_REPRESENTATION_CONTEXT( 3 )GLOBAL_UNCERTAINTY_ASSIGNED_CONTEXT( ( #93 ) )GLOBAL_UNIT_ASSIGNED_CONTEXT( ( #95, #96, #97 ) )REPRESENTATION_CONTEXT( 'NONE', 'WORKSPACE' ) );
#46 = PRODUCT( 'SVF-S04-100-29', 'SVF-S04-100-29', 'PART-SVF-S04-100-29-DESC', ( #83 ) );
#49 = ITEM_DEFINED_TRANSFORMATION( '', '', #43, #44 );
#51 = NEXT_ASSEMBLY_USAGE_OCCURRENCE( 'NAUO1', 'SVF-S04-100-29', 'SVF-S04-100-29', #42, #52, $ );
#52 = PRODUCT_DEFINITION( 'SVF-S04-100-29', 'SVF-S04-100-29', #99, #1 );
#53 = MANIFOLD_SOLID_BREP( 'SVF-S04-100-29', #100 );
#54 = PRESENTATION_STYLE_ASSIGNMENT( ( #101 ) );
#55 = ADVANCED_FACE( '', ( #102, #103, #104 ), #105, .F. );
#56 = PRESENTATION_STYLE_ASSIGNMENT( ( #106 ) );
#57 = ADVANCED_FACE( '', ( #107, #108 ), #109, .F. );
#58 = PRESENTATION_STYLE_ASSIGNMENT( ( #110 ) );
#59 = ADVANCED_FACE( '', ( #111, #112, #113 ), #114, .T. );
#60 = PRESENTATION_STYLE_ASSIGNMENT( ( #115 ) );
#61 = ADVANCED_FACE( '', ( #116 ), #117, .T. );
#62 = PRESENTATION_STYLE_ASSIGNMENT( ( #118 ) );
#63 = ADVANCED_FACE( '', ( #119, #120 ), #121, .F. );
#64 = PRESENTATION_STYLE_ASSIGNMENT( ( #122 ) );
#65 = ADVANCED_FACE( '', ( #123 ), #124, .T. );
#66 = PRESENTATION_STYLE_ASSIGNMENT( ( #125 ) );
#67 = ADVANCED_FACE( '', ( #126 ), #127, .T. );
#68 = PRESENTATION_STYLE_ASSIGNMENT( ( #128 ) );
#69 = ADVANCED_FACE( '', ( #129 ), #130, .T. );
#72 = LENGTH_MEASURE_WITH_UNIT( LENGTH_MEASURE( 1.00000000000000 ), #131 );
#75 = DIMENSIONAL_EXPONENTS( 1.00000000000000, 0.000000000000000, 0.000000000000000, 0.000000000000000, 0.000000000000000, 0.000000000000000, 0.000000000000000 );
#77 = DIMENSIONAL_EXPONENTS( 0.000000000000000, 0.000000000000000, 0.000000000000000, 0.000000000000000, 0.000000000000000, 0.000000000000000, 0.000000000000000 );
#83 = PRODUCT_CONTEXT( '', #14, 'mechanical' );
#84 = PRODUCT_DEFINITION_FORMATION_WITH_SPECIFIED_SOURCE( ' ', 'NONE', #41, .NOT_KNOWN. );
#85 = CARTESIAN_POINT( '', ( 0.000000000000000, 0.000000000000000, 0.000000000000000 ) );
#86 = DIRECTION( '', ( 0.000000000000000, 0.000000000000000, 1.00000000000000 ) );
#87 = DIRECTION( '', ( 1.00000000000000, 0.000000000000000, 0.000000000000000 ) );
#88 = CARTESIAN_POINT( '', ( 0.000000000000000, 0.000000000000000, 0.000000000000000 ) );
#89 = DIRECTION( '', ( 0.000000000000000, 0.000000000000000, 1.00000000000000 ) );
#90 = DIRECTION( '', ( 1.00000000000000, 0.000000000000000, 0.000000000000000 ) );
#93 = UNCERTAINTY_MEASURE_WITH_UNIT( LENGTH_MEASURE( 0.00100000000000000 ), #95, '', '' );
#95 =  ( CONVERSION_BASED_UNIT( 'MILLIMETRE', #134 )LENGTH_UNIT(  )NAMED_UNIT( #137 ) );
#96 =  ( NAMED_UNIT( #139 )PLANE_ANGLE_UNIT(  )SI_UNIT( $, .RADIAN. ) );
#97 =  ( NAMED_UNIT( #139 )SI_UNIT( $, .STERADIAN. )SOLID_ANGLE_UNIT(  ) );
#99 = PRODUCT_DEFINITION_FORMATION_WITH_SPECIFIED_SOURCE( ' ', 'NONE', #46, .NOT_KNOWN. );
#100 = CLOSED_SHELL( '', ( #57, #55, #63, #59, #69, #65, #61, #67 ) );
#101 = SURFACE_STYLE_USAGE( .BOTH., #145 );
#102 = FACE_BOUND( '', #146, .T. );
#103 = FACE_BOUND( '', #147, .T. );
#104 = FACE_OUTER_BOUND( '', #148, .T. );
#105 = PLANE( '', #149 );
#106 = SURFACE_STYLE_USAGE( .BOTH., #150 );
#107 = FACE_OUTER_BOUND( '', #151, .T. );
#108 = FACE_OUTER_BOUND( '', #152, .T. );
#109 = CYLINDRICAL_SURFACE( '', #153, 4.50000000000000 );
#110 = SURFACE_STYLE_USAGE( .BOTH., #154 );
#111 = FACE_BOUND( '', #155, .T. );
#112 = FACE_BOUND( '', #156, .T. );
#113 = FACE_OUTER_BOUND( '', #157, .T. );
#114 = PLANE( '', #158 );
#115 = SURFACE_STYLE_USAGE( .BOTH., #159 );
#116 = FACE_OUTER_BOUND( '', #160, .T. );
#117 = PLANE( '', #161 );
#118 = SURFACE_STYLE_USAGE( .BOTH., #162 );
#119 = FACE_OUTER_BOUND( '', #163, .T. );
#120 = FACE_OUTER_BOUND( '', #164, .T. );
#121 = CYLINDRICAL_SURFACE( '', #165, 4.50000000000000 );
#122 = SURFACE_STYLE_USAGE( .BOTH., #166 );
#123 = FACE_OUTER_BOUND( '', #167, .T. );
#124 = PLANE( '', #168 );
#125 = SURFACE_STYLE_USAGE( .BOTH., #169 );
#126 = FACE_OUTER_BOUND( '', #170, .T. );
#127 = PLANE( '', #171 );
#128 = SURFACE_STYLE_USAGE( .BOTH., #172 );
#129 = FACE_OUTER_BOUND( '', #173, .T. );
#130 = PLANE( '', #174 );
#131 =  ( LENGTH_UNIT(  )NAMED_UNIT( #75 )SI_UNIT( .MILLI., .METRE. ) );
#134 = LENGTH_MEASURE_WITH_UNIT( LENGTH_MEASURE( 1.00000000000000 ), #176 );
#137 = DIMENSIONAL_EXPONENTS( 1.00000000000000, 0.000000000000000, 0.000000000000000, 0.000000000000000, 0.000000000000000, 0.000000000000000, 0.000000000000000 );
#139 = DIMENSIONAL_EXPONENTS( 0.000000000000000, 0.000000000000000, 0.000000000000000, 0.000000000000000, 0.000000000000000, 0.000000000000000, 0.000000000000000 );
#145 = SURFACE_SIDE_STYLE( '', ( #177 ) );
#146 = EDGE_LOOP( '', ( #178 ) );
#147 = EDGE_LOOP( '', ( #179 ) );
#148 = EDGE_LOOP( '', ( #180, #181, #182, #183 ) );
#149 = AXIS2_PLACEMENT_3D( '', #184, #185, #186 );
#150 = SURFACE_SIDE_STYLE( '', ( #187 ) );
#151 = EDGE_LOOP( '', ( #188 ) );
#152 = EDGE_LOOP( '', ( #189 ) );
#153 = AXIS2_PLACEMENT_3D( '', #190, #191, #192 );
#154 = SURFACE_SIDE_STYLE( '', ( #193 ) );
#155 = EDGE_LOOP( '', ( #194 ) );
#156 = EDGE_LOOP( '', ( #195 ) );
#157 = EDGE_LOOP( '', ( #196, #197, #198, #199 ) );
#158 = AXIS2_PLACEMENT_3D( '', #200, #201, #202 );
#159 = SURFACE_SIDE_STYLE( '', ( #203 ) );
#160 = EDGE_LOOP( '', ( #204, #205, #206, #207 ) );
#161 = AXIS2_PLACEMENT_3D( '', #208, #209, #210 );
#162 = SURFACE_SIDE_STYLE( '', ( #211 ) );
#163 = EDGE_LOOP( '', ( #212 ) );
#164 = EDGE_LOOP( '', ( #213 ) );
#165 = AXIS2_PLACEMENT_3D( '', #214, #215, #216 );
#166 = SURFACE_SIDE_STYLE( '', ( #217 ) );
#167 = EDGE_LOOP( '', ( #218, #219, #220, #221 ) );
#168 = AXIS2_PLACEMENT_3D( '', #222, #223, #224 );
#169 = SURFACE_SIDE_STYLE( '', ( #225 ) );
#170 = EDGE_LOOP( '', ( #226, #227, #228, #229 ) );
#171 = AXIS2_PLACEMENT_3D( '', #230, #231, #232 );
#172 = SURFACE_SIDE_STYLE( '', ( #233 ) );
#173 = EDGE_LOOP( '', ( #234, #235, #236, #237 ) );
#174 = AXIS2_PLACEMENT_3D( '', #238, #239, #240 );
#176 =  ( LENGTH_UNIT(  )NAMED_UNIT( #137 )SI_UNIT( .MILLI., .METRE. ) );
#177 = SURFACE_STYLE_FILL_AREA( #242 );
#178 = ORIENTED_EDGE( '', *, *, #243, .T. );
#179 = ORIENTED_EDGE( '', *, *, #244, .T. );
#180 = ORIENTED_EDGE( '', *, *, #245, .F. );
#181 = ORIENTED_EDGE( '', *, *, #246, .F. );
#182 = ORIENTED_EDGE( '', *, *, #247, .F. );
#183 = ORIENTED_EDGE( '', *, *, #248, .F. );
#184 = CARTESIAN_POINT( '', ( -49.7500000000000, 8.00000000000000, -14.5000000000000 ) );
#185 = DIRECTION( '', ( 0.000000000000000, -1.00000000000000, 0.000000000000000 ) );
#186 = DIRECTION( '', ( 0.000000000000000, 0.000000000000000, -1.00000000000000 ) );
#187 = SURFACE_STYLE_FILL_AREA( #249 );
#188 = ORIENTED_EDGE( '', *, *, #250, .F. );
#189 = ORIENTED_EDGE( '', *, *, #243, .F. );
#190 = CARTESIAN_POINT( '', ( -32.0000000000000, 0.000000000000000, 6.50000000000000 ) );
#191 = DIRECTION( '', ( -0.000000000000000, -1.00000000000000, -0.000000000000000 ) );
#192 = DIRECTION( '', ( 0.000000000000000, 0.000000000000000, -1.00000000000000 ) );
#193 = SURFACE_STYLE_FILL_AREA( #251 );
#194 = ORIENTED_EDGE( '', *, *, #250, .T. );
#195 = ORIENTED_EDGE( '', *, *, #252, .T. );
#196 = ORIENTED_EDGE( '', *, *, #253, .T. );
#197 = ORIENTED_EDGE( '', *, *, #254, .T. );
#198 = ORIENTED_EDGE( '', *, *, #255, .T. );
#199 = ORIENTED_EDGE( '', *, *, #256, .T. );
#200 = CARTESIAN_POINT( '', ( -49.7500000000000, 0.000000000000000, -14.5000000000000 ) );
#201 = DIRECTION( '', ( 0.000000000000000, -1.00000000000000, 0.000000000000000 ) );
#202 = DIRECTION( '', ( 0.000000000000000, 0.000000000000000, -1.00000000000000 ) );
#203 = SURFACE_STYLE_FILL_AREA( #257 );
#204 = ORIENTED_EDGE( '', *, *, #255, .F. );
#205 = ORIENTED_EDGE( '', *, *, #258, .F. );
#206 = ORIENTED_EDGE( '', *, *, #247, .T. );
#207 = ORIENTED_EDGE( '', *, *, #259, .T. );
#208 = CARTESIAN_POINT( '', ( 49.7500000000000, 8.00000000000000, -14.5000000000000 ) );
#209 = DIRECTION( '', ( 1.00000000000000, 0.000000000000000, 0.000000000000000 ) );
#210 = DIRECTION( '', ( 0.000000000000000, 0.000000000000000, -1.00000000000000 ) );
#211 = SURFACE_STYLE_FILL_AREA( #260 );
#212 = ORIENTED_EDGE( '', *, *, #252, .F. );
#213 = ORIENTED_EDGE( '', *, *, #244, .F. );
#214 = CARTESIAN_POINT( '', ( 32.0000000000000, 0.000000000000000, 6.50000000000000 ) );
#215 = DIRECTION( '', ( -0.000000000000000, -1.00000000000000, -0.000000000000000 ) );
#216 = DIRECTION( '', ( 0.000000000000000, 0.000000000000000, -1.00000000000000 ) );
#217 = SURFACE_STYLE_FILL_AREA( #261 );
#218 = ORIENTED_EDGE( '', *, *, #254, .F. );
#219 = ORIENTED_EDGE( '', *, *, #262, .F. );
#220 = ORIENTED_EDGE( '', *, *, #248, .T. );
#221 = ORIENTED_EDGE( '', *, *, #258, .T. );
#222 = CARTESIAN_POINT( '', ( -49.7500000000000, 8.00000000000000, -14.5000000000000 ) );
#223 = DIRECTION( '', ( 0.000000000000000, 0.000000000000000, -1.00000000000000 ) );
#224 = DIRECTION( '', ( -1.00000000000000, 0.000000000000000, 0.000000000000000 ) );
#225 = SURFACE_STYLE_FILL_AREA( #263 );
#226 = ORIENTED_EDGE( '', *, *, #256, .F. );
#227 = ORIENTED_EDGE( '', *, *, #259, .F. );
#228 = ORIENTED_EDGE( '', *, *, #246, .T. );
#229 = ORIENTED_EDGE( '', *, *, #264, .T. );
#230 = CARTESIAN_POINT( '', ( 49.7500000000000, 8.00000000000000, 14.5000000000000 ) );
#231 = DIRECTION( '', ( 0.000000000000000, 0.000000000000000, 1.00000000000000 ) );
#232 = DIRECTION( '', ( 1.00000000000000, 0.000000000000000, 0.000000000000000 ) );
#233 = SURFACE_STYLE_FILL_AREA( #265 );
#234 = ORIENTED_EDGE( '', *, *, #253, .F. );
#235 = ORIENTED_EDGE( '', *, *, #264, .F. );
#236 = ORIENTED_EDGE( '', *, *, #245, .T. );
#237 = ORIENTED_EDGE( '', *, *, #262, .T. );
#238 = CARTESIAN_POINT( '', ( -49.7500000000000, 8.00000000000000, 14.5000000000000 ) );
#239 = DIRECTION( '', ( -1.00000000000000, 0.000000000000000, 0.000000000000000 ) );
#240 = DIRECTION( '', ( 0.000000000000000, 0.000000000000000, 1.00000000000000 ) );
#242 = FILL_AREA_STYLE( '', ( #266 ) );
#243 = EDGE_CURVE( '', #267, #267, #268, .T. );
#244 = EDGE_CURVE( '', #269, #269, #270, .T. );
#245 = EDGE_CURVE( '', #271, #272, #273, .T. );
#246 = EDGE_CURVE( '', #274, #271, #275, .T. );
#247 = EDGE_CURVE( '', #276, #274, #277, .T. );
#248 = EDGE_CURVE( '', #272, #276, #278, .T. );
#249 = FILL_AREA_STYLE( '', ( #279 ) );
#250 = EDGE_CURVE( '', #280, #280, #281, .T. );
#251 = FILL_AREA_STYLE( '', ( #282 ) );
#252 = EDGE_CURVE( '', #283, #283, #284, .T. );
#253 = EDGE_CURVE( '', #285, #286, #287, .T. );
#254 = EDGE_CURVE( '', #286, #288, #289, .T. );
#255 = EDGE_CURVE( '', #288, #290, #291, .T. );
#256 = EDGE_CURVE( '', #290, #285, #292, .T. );
#257 = FILL_AREA_STYLE( '', ( #293 ) );
#258 = EDGE_CURVE( '', #276, #288, #294, .T. );
#259 = EDGE_CURVE( '', #274, #290, #295, .T. );
#260 = FILL_AREA_STYLE( '', ( #296 ) );
#261 = FILL_AREA_STYLE( '', ( #297 ) );
#262 = EDGE_CURVE( '', #272, #286, #298, .T. );
#263 = FILL_AREA_STYLE( '', ( #299 ) );
#264 = EDGE_CURVE( '', #271, #285, #300, .T. );
#265 = FILL_AREA_STYLE( '', ( #301 ) );
#266 = FILL_AREA_STYLE_COLOUR( '', #302 );
#267 = VERTEX_POINT( '', #303 );
#268 = CIRCLE( '', #304, 4.50000000000000 );
#269 = VERTEX_POINT( '', #305 );
#270 = CIRCLE( '', #306, 4.50000000000000 );
#271 = VERTEX_POINT( '', #307 );
#272 = VERTEX_POINT( '', #308 );
#273 = LINE( '', #309, #310 );
#274 = VERTEX_POINT( '', #311 );
#275 = LINE( '', #312, #313 );
#276 = VERTEX_POINT( '', #314 );
#277 = LINE( '', #315, #316 );
#278 = LINE( '', #317, #318 );
#279 = FILL_AREA_STYLE_COLOUR( '', #319 );
#280 = VERTEX_POINT( '', #320 );
#281 = CIRCLE( '', #321, 4.50000000000000 );
#282 = FILL_AREA_STYLE_COLOUR( '', #322 );
#283 = VERTEX_POINT( '', #323 );
#284 = CIRCLE( '', #324, 4.50000000000000 );
#285 = VERTEX_POINT( '', #325 );
#286 = VERTEX_POINT( '', #326 );
#287 = LINE( '', #327, #328 );
#288 = VERTEX_POINT( '', #329 );
#289 = LINE( '', #330, #331 );
#290 = VERTEX_POINT( '', #332 );
#291 = LINE( '', #333, #334 );
#292 = LINE( '', #335, #336 );
#293 = FILL_AREA_STYLE_COLOUR( '', #337 );
#294 = LINE( '', #338, #339 );
#295 = LINE( '', #340, #341 );
#296 = FILL_AREA_STYLE_COLOUR( '', #342 );
#297 = FILL_AREA_STYLE_COLOUR( '', #343 );
#298 = LINE( '', #344, #345 );
#299 = FILL_AREA_STYLE_COLOUR( '', #346 );
#300 = LINE( '', #347, #348 );
#301 = FILL_AREA_STYLE_COLOUR( '', #349 );
#302 = COLOUR_RGB( '', 0.752941191196442, 0.752941191196442, 0.752941191196442 );
#303 = CARTESIAN_POINT( '', ( -32.0000000000000, 8.00000000000000, 2.00000000000000 ) );
#304 = AXIS2_PLACEMENT_3D( '', #350, #351, #352 );
#305 = CARTESIAN_POINT( '', ( 32.0000000000000, 8.00000000000000, 2.00000000000000 ) );
#306 = AXIS2_PLACEMENT_3D( '', #353, #354, #355 );
#307 = CARTESIAN_POINT( '', ( -49.7500000000000, 8.00000000000000, 14.5000000000000 ) );
#308 = CARTESIAN_POINT( '', ( -49.7500000000000, 8.00000000000000, -14.5000000000000 ) );
#309 = CARTESIAN_POINT( '', ( -49.7500000000000, 8.00000000000000, 14.5000000000000 ) );
#310 = VECTOR( '', #356, 1000.00000000000 );
#311 = CARTESIAN_POINT( '', ( 49.7500000000000, 8.00000000000000, 14.5000000000000 ) );
#312 = CARTESIAN_POINT( '', ( 49.7500000000000, 8.00000000000000, 14.5000000000000 ) );
#313 = VECTOR( '', #357, 1000.00000000000 );
#314 = CARTESIAN_POINT( '', ( 49.7500000000000, 8.00000000000000, -14.5000000000000 ) );
#315 = CARTESIAN_POINT( '', ( 49.7500000000000, 8.00000000000000, -14.5000000000000 ) );
#316 = VECTOR( '', #358, 1000.00000000000 );
#317 = CARTESIAN_POINT( '', ( -49.7500000000000, 8.00000000000000, -14.5000000000000 ) );
#318 = VECTOR( '', #359, 1000.00000000000 );
#319 = COLOUR_RGB( '', 0.752941191196442, 0.752941191196442, 0.752941191196442 );
#320 = CARTESIAN_POINT( '', ( -32.0000000000000, 0.000000000000000, 2.00000000000000 ) );
#321 = AXIS2_PLACEMENT_3D( '', #360, #361, #362 );
#322 = COLOUR_RGB( '', 0.752941191196442, 0.752941191196442, 0.752941191196442 );
#323 = CARTESIAN_POINT( '', ( 32.0000000000000, 0.000000000000000, 2.00000000000000 ) );
#324 = AXIS2_PLACEMENT_3D( '', #363, #364, #365 );
#325 = CARTESIAN_POINT( '', ( -49.7500000000000, 0.000000000000000, 14.5000000000000 ) );
#326 = CARTESIAN_POINT( '', ( -49.7500000000000, 0.000000000000000, -14.5000000000000 ) );
#327 = CARTESIAN_POINT( '', ( -49.7500000000000, 0.000000000000000, 14.5000000000000 ) );
#328 = VECTOR( '', #366, 1000.00000000000 );
#329 = CARTESIAN_POINT( '', ( 49.7500000000000, 0.000000000000000, -14.5000000000000 ) );
#330 = CARTESIAN_POINT( '', ( -49.7500000000000, 0.000000000000000, -14.5000000000000 ) );
#331 = VECTOR( '', #367, 1000.00000000000 );
#332 = CARTESIAN_POINT( '', ( 49.7500000000000, 0.000000000000000, 14.5000000000000 ) );
#333 = CARTESIAN_POINT( '', ( 49.7500000000000, 0.000000000000000, -14.5000000000000 ) );
#334 = VECTOR( '', #368, 1000.00000000000 );
#335 = CARTESIAN_POINT( '', ( 49.7500000000000, 0.000000000000000, 14.5000000000000 ) );
#336 = VECTOR( '', #369, 1000.00000000000 );
#337 = COLOUR_RGB( '', 0.752941191196442, 0.752941191196442, 0.752941191196442 );
#338 = CARTESIAN_POINT( '', ( 49.7500000000000, 8.00000000000000, -14.5000000000000 ) );
#339 = VECTOR( '', #370, 1000.00000000000 );
#340 = CARTESIAN_POINT( '', ( 49.7500000000000, 8.00000000000000, 14.5000000000000 ) );
#341 = VECTOR( '', #371, 1000.00000000000 );
#342 = COLOUR_RGB( '', 0.752941191196442, 0.752941191196442, 0.752941191196442 );
#343 = COLOUR_RGB( '', 0.752941191196442, 0.752941191196442, 0.752941191196442 );
#344 = CARTESIAN_POINT( '', ( -49.7500000000000, 8.00000000000000, -14.5000000000000 ) );
#345 = VECTOR( '', #372, 1000.00000000000 );
#346 = COLOUR_RGB( '', 0.752941191196442, 0.752941191196442, 0.752941191196442 );
#347 = CARTESIAN_POINT( '', ( -49.7500000000000, 8.00000000000000, 14.5000000000000 ) );
#348 = VECTOR( '', #373, 1000.00000000000 );
#349 = COLOUR_RGB( '', 0.752941191196442, 0.752941191196442, 0.752941191196442 );
#350 = CARTESIAN_POINT( '', ( -32.0000000000000, 8.00000000000000, 6.50000000000000 ) );
#351 = DIRECTION( '', ( 0.000000000000000, -1.00000000000000, 0.000000000000000 ) );
#352 = DIRECTION( '', ( 0.000000000000000, 0.000000000000000, -1.00000000000000 ) );
#353 = CARTESIAN_POINT( '', ( 32.0000000000000, 8.00000000000000, 6.50000000000000 ) );
#354 = DIRECTION( '', ( 0.000000000000000, -1.00000000000000, 0.000000000000000 ) );
#355 = DIRECTION( '', ( 0.000000000000000, 0.000000000000000, -1.00000000000000 ) );
#356 = DIRECTION( '', ( 0.000000000000000, 0.000000000000000, -1.00000000000000 ) );
#357 = DIRECTION( '', ( -1.00000000000000, 0.000000000000000, 0.000000000000000 ) );
#358 = DIRECTION( '', ( 0.000000000000000, 0.000000000000000, 1.00000000000000 ) );
#359 = DIRECTION( '', ( 1.00000000000000, 0.000000000000000, 0.000000000000000 ) );
#360 = CARTESIAN_POINT( '', ( -32.0000000000000, 0.000000000000000, 6.50000000000000 ) );
#361 = DIRECTION( '', ( 0.000000000000000, 1.00000000000000, 0.000000000000000 ) );
#362 = DIRECTION( '', ( 0.000000000000000, 0.000000000000000, -1.00000000000000 ) );
#363 = CARTESIAN_POINT( '', ( 32.0000000000000, 0.000000000000000, 6.50000000000000 ) );
#364 = DIRECTION( '', ( 0.000000000000000, 1.00000000000000, 0.000000000000000 ) );
#365 = DIRECTION( '', ( 0.000000000000000, 0.000000000000000, -1.00000000000000 ) );
#366 = DIRECTION( '', ( 0.000000000000000, 0.000000000000000, -1.00000000000000 ) );
#367 = DIRECTION( '', ( 1.00000000000000, 0.000000000000000, 0.000000000000000 ) );
#368 = DIRECTION( '', ( 0.000000000000000, 0.000000000000000, 1.00000000000000 ) );
#369 = DIRECTION( '', ( -1.00000000000000, 0.000000000000000, 0.000000000000000 ) );
#370 = DIRECTION( '', ( 0.000000000000000, -1.00000000000000, 0.000000000000000 ) );
#371 = DIRECTION( '', ( 0.000000000000000, -1.00000000000000, 0.000000000000000 ) );
#372 = DIRECTION( '', ( 0.000000000000000, -1.00000000000000, 0.000000000000000 ) );
#373 = DIRECTION( '', ( 0.000000000000000, -1.00000000000000, 0.000000000000000 ) );
ENDSEC;
END-ISO-10303-21;
