ISO-10303-21;
HEADER;
FILE_DESCRIPTION( ( 'Unknown' ), '1' );
FILE_NAME( 'f:/¼È¦s/PT-3D/PT07-3D/M14/PT07-14050.stp', 'Unknown', ( 'Unknown' ), ( 'Unknown' ), 'XStep 1.0', 'Unknown', '  ' );
FILE_SCHEMA( ( 'CONFIG_CONTROL_DESIGN' ) );
ENDSEC;
DATA;
#1 = DESIGN_CONTEXT( '', #27, 'design' );
#2 = APPLICATION_PROTOCOL_DEFINITION( 'INTERNATIONAL STANDARD', 'config_control_design', 1994, #27 );
#3 = PRODUCT_CATEGORY_RELATIONSHIP( 'NONE', 'NONE', #28, #29 );
#4 = DATE_AND_TIME( #30, #31 );
#5 = DATE_TIME_ROLE( 'creation_date' );
#6 = DATE_TIME_ROLE( 'classification_date' );
#7 = PERSON_AND_ORGANIZATION_ROLE( 'creator' );
#8 = PERSON_AND_ORGANIZATION_ROLE( 'design_supplier' );
#9 = PERSON_AND_ORGANIZATION_ROLE( 'classification_officer' );
#10 = PERSON_AND_ORGANIZATION_ROLE( 'design_owner' );
#11 = APPROVAL_PERSON_ORGANIZATION( #32, #33, #34 );
#12 = APPROVAL_DATE_TIME( #4, #33 );
#13 = CC_DESIGN_APPROVAL( #33, ( #35, #36, #37 ) );
#14 = CC_DESIGN_DATE_AND_TIME_ASSIGNMENT( #4, #5, ( #37 ) );
#15 = CC_DESIGN_DATE_AND_TIME_ASSIGNMENT( #4, #6, ( #35 ) );
#16 = CC_DESIGN_PERSON_AND_ORGANIZATION_ASSIGNMENT( #32, #10, ( #38 ) );
#17 = CC_DESIGN_PERSON_AND_ORGANIZATION_ASSIGNMENT( #32, #7, ( #37 ) );
#18 = CC_DESIGN_PERSON_AND_ORGANIZATION_ASSIGNMENT( #32, #7, ( #36 ) );
#19 = CC_DESIGN_PERSON_AND_ORGANIZATION_ASSIGNMENT( #32, #8, ( #36 ) );
#20 = CC_DESIGN_SECURITY_CLASSIFICATION( #35, ( #36 ) );
#21 = CC_DESIGN_PERSON_AND_ORGANIZATION_ASSIGNMENT( #32, #9, ( #35 ) );
#22 = SHAPE_DEFINITION_REPRESENTATION( #39, #40 );
#23 =  ( GEOMETRIC_REPRESENTATION_CONTEXT( 3 )GLOBAL_UNCERTAINTY_ASSIGNED_CONTEXT( ( #43 ) )GLOBAL_UNIT_ASSIGNED_CONTEXT( ( #45, #46, #47 ) )REPRESENTATION_CONTEXT( 'NONE', 'WORKSPACE' ) );
#27 = APPLICATION_CONTEXT( 'CONFIGURATION CONTROLLED 3D DESIGNS OF MECHANICAL PARTS AND ASSEMBLIES' );
#28 = PRODUCT_CATEGORY( 'part', 'NONE' );
#29 = PRODUCT_RELATED_PRODUCT_CATEGORY( 'detail', ' ', ( #38 ) );
#30 = CALENDAR_DATE( 2009, 9, 10 );
#31 = LOCAL_TIME( 10, 33, 24.0000000000000, #49 );
#32 = PERSON_AND_ORGANIZATION( #50, #51 );
#33 = APPROVAL( #52, 'SOLID MODEL' );
#34 = APPROVAL_ROLE( 'APPROVED' );
#35 = SECURITY_CLASSIFICATION( '', '', #53 );
#36 = PRODUCT_DEFINITION_FORMATION_WITH_SPECIFIED_SOURCE( ' ', 'NONE', #38, .NOT_KNOWN. );
#37 = PRODUCT_DEFINITION( 'NONE', 'NONE', #36, #1 );
#38 = PRODUCT( '1', '1', 'PART-1-DESC', ( #54 ) );
#39 = PRODUCT_DEFINITION_SHAPE( 'NONE', 'NONE', #37 );
#40 = ADVANCED_BREP_SHAPE_REPRESENTATION( '1', ( #55, #56 ), #23 );
#43 = UNCERTAINTY_MEASURE_WITH_UNIT( LENGTH_MEASURE( 0.00100000000000000 ), #45, '', '' );
#45 =  ( CONVERSION_BASED_UNIT( 'MILLIMETRE', #59 )LENGTH_UNIT(  )NAMED_UNIT( #62 ) );
#46 =  ( NAMED_UNIT( #64 )PLANE_ANGLE_UNIT(  )SI_UNIT( $, .RADIAN. ) );
#47 =  ( NAMED_UNIT( #64 )SOLID_ANGLE_UNIT(  )SI_UNIT( $, .STERADIAN. ) );
#49 = COORDINATED_UNIVERSAL_TIME_OFFSET( 8, 0, .AHEAD. );
#50 = PERSON( '', 'UNSPECIFIED', $, $, $, $ );
#51 = ORGANIZATION( 'UNSPECIFIED', 'UNSPECIFIED', 'UNSPECIFIED' );
#52 = APPROVAL_STATUS( 'approved' );
#53 = SECURITY_CLASSIFICATION_LEVEL( 'unclassified' );
#54 = MECHANICAL_CONTEXT( '', #27, 'mechanical' );
#55 = MANIFOLD_SOLID_BREP( '1', #70 );
#56 = AXIS2_PLACEMENT_3D( '', #71, #72, #73 );
#59 = LENGTH_MEASURE_WITH_UNIT( LENGTH_MEASURE( 1.00000000000000 ), #74 );
#62 = DIMENSIONAL_EXPONENTS( 1.00000000000000, 0.000000000000000, 0.000000000000000, 0.000000000000000, 0.000000000000000, 0.000000000000000, 0.000000000000000 );
#64 = DIMENSIONAL_EXPONENTS( 0.000000000000000, 0.000000000000000, 0.000000000000000, 0.000000000000000, 0.000000000000000, 0.000000000000000, 0.000000000000000 );
#70 = CLOSED_SHELL( '', ( #75, #76, #77, #78, #79 ) );
#71 = CARTESIAN_POINT( '', ( 0.000000000000000, 0.000000000000000, 0.000000000000000 ) );
#72 = DIRECTION( '', ( 0.000000000000000, 0.000000000000000, 1.00000000000000 ) );
#73 = DIRECTION( '', ( 1.00000000000000, 0.000000000000000, 0.000000000000000 ) );
#74 =  ( NAMED_UNIT( #62 )LENGTH_UNIT(  )SI_UNIT( .MILLI., .METRE. ) );
#75 = ADVANCED_FACE( '', ( #81, #82 ), #83, .T. );
#76 = ADVANCED_FACE( '', ( #84, #85 ), #86, .T. );
#77 = ADVANCED_FACE( '', ( #87, #88 ), #89, .T. );
#78 = ADVANCED_FACE( '', ( #90 ), #91, .F. );
#79 = ADVANCED_FACE( '', ( #92 ), #93, .T. );
#81 = FACE_OUTER_BOUND( '', #94, .T. );
#82 = FACE_OUTER_BOUND( '', #95, .T. );
#83 = CYLINDRICAL_SURFACE( '', #96, 7.00000000000000 );
#84 = FACE_OUTER_BOUND( '', #97, .T. );
#85 = FACE_BOUND( '', #98, .T. );
#86 = CONICAL_SURFACE( '', #99, 6.00000000000000, 0.785398163397448 );
#87 = FACE_BOUND( '', #100, .T. );
#88 = FACE_OUTER_BOUND( '', #101, .T. );
#89 = CONICAL_SURFACE( '', #102, 7.00000000000000, 0.785398163397448 );
#90 = FACE_OUTER_BOUND( '', #103, .T. );
#91 = PLANE( '', #104 );
#92 = FACE_OUTER_BOUND( '', #105, .T. );
#93 = PLANE( '', #106 );
#94 = EDGE_LOOP( '', ( #107 ) );
#95 = EDGE_LOOP( '', ( #108 ) );
#96 = AXIS2_PLACEMENT_3D( '', #109, #110, #111 );
#97 = EDGE_LOOP( '', ( #112 ) );
#98 = EDGE_LOOP( '', ( #113 ) );
#99 = AXIS2_PLACEMENT_3D( '', #114, #115, #116 );
#100 = EDGE_LOOP( '', ( #117 ) );
#101 = EDGE_LOOP( '', ( #118 ) );
#102 = AXIS2_PLACEMENT_3D( '', #119, #120, #121 );
#103 = EDGE_LOOP( '', ( #122 ) );
#104 = AXIS2_PLACEMENT_3D( '', #123, #124, #125 );
#105 = EDGE_LOOP( '', ( #126 ) );
#106 = AXIS2_PLACEMENT_3D( '', #127, #128, #129 );
#107 = ORIENTED_EDGE( '', *, *, #130, .T. );
#108 = ORIENTED_EDGE( '', *, *, #131, .T. );
#109 = CARTESIAN_POINT( '', ( 25.0000000000000, 0.000000000000000, -1.73472347597680E-015 ) );
#110 = DIRECTION( '', ( 1.00000000000000, -0.000000000000000, -0.000000000000000 ) );
#111 = DIRECTION( '', ( 0.000000000000000, 0.000000000000000, 1.00000000000000 ) );
#112 = ORIENTED_EDGE( '', *, *, #131, .F. );
#113 = ORIENTED_EDGE( '', *, *, #132, .F. );
#114 = CARTESIAN_POINT( '', ( 25.0000000000000, 0.000000000000000, -1.73472347597680E-015 ) );
#115 = DIRECTION( '', ( -1.00000000000000, 0.000000000000000, -0.000000000000000 ) );
#116 = DIRECTION( '', ( 0.000000000000000, 0.000000000000000, 1.00000000000000 ) );
#117 = ORIENTED_EDGE( '', *, *, #133, .F. );
#118 = ORIENTED_EDGE( '', *, *, #130, .F. );
#119 = CARTESIAN_POINT( '', ( -24.0000000000000, 0.000000000000000, -1.73472347597680E-015 ) );
#120 = DIRECTION( '', ( 1.00000000000000, -0.000000000000000, 0.000000000000000 ) );
#121 = DIRECTION( '', ( 0.000000000000000, 0.000000000000000, -1.00000000000000 ) );
#122 = ORIENTED_EDGE( '', *, *, #133, .T. );
#123 = CARTESIAN_POINT( '', ( -25.0000000000000, 0.000000000000000, -1.73472347597680E-015 ) );
#124 = DIRECTION( '', ( 1.00000000000000, -6.12303176911189E-017, 0.000000000000000 ) );
#125 = DIRECTION( '', ( 6.12303176911189E-017, 1.00000000000000, 0.000000000000000 ) );
#126 = ORIENTED_EDGE( '', *, *, #132, .T. );
#127 = CARTESIAN_POINT( '', ( 25.0000000000000, 0.000000000000000, -1.73472347597680E-015 ) );
#128 = DIRECTION( '', ( 1.00000000000000, -6.12303176911189E-017, 0.000000000000000 ) );
#129 = DIRECTION( '', ( 6.12303176911189E-017, 1.00000000000000, 0.000000000000000 ) );
#130 = EDGE_CURVE( '', #134, #134, #135, .T. );
#131 = EDGE_CURVE( '', #136, #136, #137, .F. );
#132 = EDGE_CURVE( '', #138, #138, #139, .T. );
#133 = EDGE_CURVE( '', #140, #140, #141, .F. );
#134 = VERTEX_POINT( '', #142 );
#135 = CIRCLE( '', #143, 7.00000000000000 );
#136 = VERTEX_POINT( '', #144 );
#137 = CIRCLE( '', #145, 7.00000000000000 );
#138 = VERTEX_POINT( '', #146 );
#139 = CIRCLE( '', #147, 6.00000000000000 );
#140 = VERTEX_POINT( '', #148 );
#141 = CIRCLE( '', #149, 6.00000000000000 );
#142 = CARTESIAN_POINT( '', ( -24.0000000000000, 0.000000000000000, -7.00000000000000 ) );
#143 = AXIS2_PLACEMENT_3D( '', #150, #151, #152 );
#144 = CARTESIAN_POINT( '', ( 24.0000000000000, 0.000000000000000, -7.00000000000000 ) );
#145 = AXIS2_PLACEMENT_3D( '', #153, #154, #155 );
#146 = CARTESIAN_POINT( '', ( 25.0000000000000, 6.00000000000000, -1.73472347597680E-015 ) );
#147 = AXIS2_PLACEMENT_3D( '', #156, #157, #158 );
#148 = CARTESIAN_POINT( '', ( -25.0000000000000, 6.00000000000000, -1.73472347597680E-015 ) );
#149 = AXIS2_PLACEMENT_3D( '', #159, #160, #161 );
#150 = CARTESIAN_POINT( '', ( -24.0000000000000, 0.000000000000000, -1.73472347597680E-015 ) );
#151 = DIRECTION( '', ( 1.00000000000000, 0.000000000000000, 0.000000000000000 ) );
#152 = DIRECTION( '', ( 0.000000000000000, 0.000000000000000, -1.00000000000000 ) );
#153 = CARTESIAN_POINT( '', ( 24.0000000000000, 0.000000000000000, -1.73472347597680E-015 ) );
#154 = DIRECTION( '', ( 1.00000000000000, 0.000000000000000, 0.000000000000000 ) );
#155 = DIRECTION( '', ( 0.000000000000000, 0.000000000000000, -1.00000000000000 ) );
#156 = CARTESIAN_POINT( '', ( 25.0000000000000, 0.000000000000000, -1.73472347597680E-015 ) );
#157 = DIRECTION( '', ( 1.00000000000000, -6.12303176911189E-017, 0.000000000000000 ) );
#158 = DIRECTION( '', ( 6.12303176911189E-017, 1.00000000000000, 0.000000000000000 ) );
#159 = CARTESIAN_POINT( '', ( -25.0000000000000, 0.000000000000000, -1.73472347597680E-015 ) );
#160 = DIRECTION( '', ( 1.00000000000000, -6.12303176911189E-017, 0.000000000000000 ) );
#161 = DIRECTION( '', ( 6.12303176911189E-017, 1.00000000000000, 0.000000000000000 ) );
ENDSEC;
END-ISO-10303-21;
