ISO-10303-21;
HEADER;
FILE_DESCRIPTION( ( 'Unknown' ), '1' );
FILE_NAME( 'f:/¼È¦s/PT-3D/PT11-3D/PT11-0825.stp', 'Unknown', ( 'Unknown' ), ( 'Unknown' ), 'XStep 1.0', 'Unknown', '  ' );
FILE_SCHEMA( ( 'CONFIG_CONTROL_DESIGN' ) );
ENDSEC;
DATA;
#1 = DESIGN_CONTEXT( '', #27, 'design' );
#2 = APPLICATION_PROTOCOL_DEFINITION( 'INTERNATIONAL STANDARD', 'config_control_design', 1994, #27 );
#3 = PRODUCT_CATEGORY_RELATIONSHIP( 'NONE', 'NONE', #28, #29 );
#4 = DATE_AND_TIME( #30, #31 );
#5 = DATE_TIME_ROLE( 'creation_date' );
#6 = DATE_TIME_ROLE( 'classification_date' );
#7 = PERSON_AND_ORGANIZATION_ROLE( 'creator' );
#8 = PERSON_AND_ORGANIZATION_ROLE( 'design_supplier' );
#9 = PERSON_AND_ORGANIZATION_ROLE( 'classification_officer' );
#10 = PERSON_AND_ORGANIZATION_ROLE( 'design_owner' );
#11 = APPROVAL_PERSON_ORGANIZATION( #32, #33, #34 );
#12 = APPROVAL_DATE_TIME( #4, #33 );
#13 = CC_DESIGN_APPROVAL( #33, ( #35, #36, #37 ) );
#14 = CC_DESIGN_DATE_AND_TIME_ASSIGNMENT( #4, #5, ( #37 ) );
#15 = CC_DESIGN_DATE_AND_TIME_ASSIGNMENT( #4, #6, ( #35 ) );
#16 = CC_DESIGN_PERSON_AND_ORGANIZATION_ASSIGNMENT( #32, #10, ( #38 ) );
#17 = CC_DESIGN_PERSON_AND_ORGANIZATION_ASSIGNMENT( #32, #7, ( #37 ) );
#18 = CC_DESIGN_PERSON_AND_ORGANIZATION_ASSIGNMENT( #32, #7, ( #36 ) );
#19 = CC_DESIGN_PERSON_AND_ORGANIZATION_ASSIGNMENT( #32, #8, ( #36 ) );
#20 = CC_DESIGN_SECURITY_CLASSIFICATION( #35, ( #36 ) );
#21 = CC_DESIGN_PERSON_AND_ORGANIZATION_ASSIGNMENT( #32, #9, ( #35 ) );
#22 = SHAPE_DEFINITION_REPRESENTATION( #39, #40 );
#23 =  ( GEOMETRIC_REPRESENTATION_CONTEXT( 3 )GLOBAL_UNCERTAINTY_ASSIGNED_CONTEXT( ( #43 ) )GLOBAL_UNIT_ASSIGNED_CONTEXT( ( #45, #46, #47 ) )REPRESENTATION_CONTEXT( 'NONE', 'WORKSPACE' ) );
#27 = APPLICATION_CONTEXT( 'CONFIGURATION CONTROLLED 3D DESIGNS OF MECHANICAL PARTS AND ASSEMBLIES' );
#28 = PRODUCT_CATEGORY( 'part', 'NONE' );
#29 = PRODUCT_RELATED_PRODUCT_CATEGORY( 'detail', ' ', ( #38 ) );
#30 = CALENDAR_DATE( 2009, 9, 10 );
#31 = LOCAL_TIME( 10, 35, 37.0000000000000, #49 );
#32 = PERSON_AND_ORGANIZATION( #50, #51 );
#33 = APPROVAL( #52, 'SOLID MODEL' );
#34 = APPROVAL_ROLE( 'APPROVED' );
#35 = SECURITY_CLASSIFICATION( '', '', #53 );
#36 = PRODUCT_DEFINITION_FORMATION_WITH_SPECIFIED_SOURCE( ' ', 'NONE', #38, .NOT_KNOWN. );
#37 = PRODUCT_DEFINITION( 'NONE', 'NONE', #36, #1 );
#38 = PRODUCT( '1', '1', 'PART-1-DESC', ( #54 ) );
#39 = PRODUCT_DEFINITION_SHAPE( 'NONE', 'NONE', #37 );
#40 = ADVANCED_BREP_SHAPE_REPRESENTATION( '1', ( #55, #56 ), #23 );
#43 = UNCERTAINTY_MEASURE_WITH_UNIT( LENGTH_MEASURE( 0.00100000000000000 ), #45, '', '' );
#45 =  ( CONVERSION_BASED_UNIT( 'MILLIMETRE', #59 )LENGTH_UNIT(  )NAMED_UNIT( #62 ) );
#46 =  ( NAMED_UNIT( #64 )PLANE_ANGLE_UNIT(  )SI_UNIT( $, .RADIAN. ) );
#47 =  ( NAMED_UNIT( #64 )SOLID_ANGLE_UNIT(  )SI_UNIT( $, .STERADIAN. ) );
#49 = COORDINATED_UNIVERSAL_TIME_OFFSET( 8, 0, .AHEAD. );
#50 = PERSON( '', 'UNSPECIFIED', $, $, $, $ );
#51 = ORGANIZATION( 'UNSPECIFIED', 'UNSPECIFIED', 'UNSPECIFIED' );
#52 = APPROVAL_STATUS( 'approved' );
#53 = SECURITY_CLASSIFICATION_LEVEL( 'unclassified' );
#54 = MECHANICAL_CONTEXT( '', #27, 'mechanical' );
#55 = MANIFOLD_SOLID_BREP( '1', #70 );
#56 = AXIS2_PLACEMENT_3D( '', #71, #72, #73 );
#59 = LENGTH_MEASURE_WITH_UNIT( LENGTH_MEASURE( 1.00000000000000 ), #74 );
#62 = DIMENSIONAL_EXPONENTS( 1.00000000000000, 0.000000000000000, 0.000000000000000, 0.000000000000000, 0.000000000000000, 0.000000000000000, 0.000000000000000 );
#64 = DIMENSIONAL_EXPONENTS( 0.000000000000000, 0.000000000000000, 0.000000000000000, 0.000000000000000, 0.000000000000000, 0.000000000000000, 0.000000000000000 );
#70 = CLOSED_SHELL( '', ( #75, #76, #77, #78, #79, #80, #81 ) );
#71 = CARTESIAN_POINT( '', ( 0.000000000000000, 0.000000000000000, 0.000000000000000 ) );
#72 = DIRECTION( '', ( 0.000000000000000, 0.000000000000000, 1.00000000000000 ) );
#73 = DIRECTION( '', ( 1.00000000000000, 0.000000000000000, 0.000000000000000 ) );
#74 =  ( NAMED_UNIT( #62 )LENGTH_UNIT(  )SI_UNIT( .MILLI., .METRE. ) );
#75 = ADVANCED_FACE( '', ( #83, #84 ), #85, .T. );
#76 = ADVANCED_FACE( '', ( #86, #87 ), #88, .F. );
#77 = ADVANCED_FACE( '', ( #89, #90 ), #91, .F. );
#78 = ADVANCED_FACE( '', ( #92, #93 ), #94, .T. );
#79 = ADVANCED_FACE( '', ( #95, #96 ), #97, .T. );
#80 = ADVANCED_FACE( '', ( #98 ), #99, .F. );
#81 = ADVANCED_FACE( '', ( #100, #101 ), #102, .T. );
#83 = FACE_OUTER_BOUND( '', #103, .T. );
#84 = FACE_OUTER_BOUND( '', #104, .T. );
#85 = CYLINDRICAL_SURFACE( '', #105, 4.00000000000000 );
#86 = FACE_OUTER_BOUND( '', #106, .T. );
#87 = FACE_BOUND( '', #107, .T. );
#88 = CONICAL_SURFACE( '', #108, 1.65000000000000, 1.02974425867665 );
#89 = FACE_OUTER_BOUND( '', #109, .T. );
#90 = FACE_OUTER_BOUND( '', #110, .T. );
#91 = CYLINDRICAL_SURFACE( '', #111, 1.65000000000000 );
#92 = FACE_BOUND( '', #112, .T. );
#93 = FACE_OUTER_BOUND( '', #113, .T. );
#94 = CONICAL_SURFACE( '', #114, 4.00000000000000, 0.523598775598299 );
#95 = FACE_BOUND( '', #115, .T. );
#96 = FACE_OUTER_BOUND( '', #116, .T. );
#97 = PLANE( '', #117 );
#98 = FACE_OUTER_BOUND( '', #118, .T. );
#99 = PLANE( '', #119 );
#100 = FACE_OUTER_BOUND( '', #120, .T. );
#101 = FACE_BOUND( '', #121, .T. );
#102 = CONICAL_SURFACE( '', #122, 3.50000000000000, 0.785398163397448 );
#103 = EDGE_LOOP( '', ( #123 ) );
#104 = EDGE_LOOP( '', ( #124 ) );
#105 = AXIS2_PLACEMENT_3D( '', #125, #126, #127 );
#106 = EDGE_LOOP( '', ( #128 ) );
#107 = VERTEX_LOOP( '', #129 );
#108 = AXIS2_PLACEMENT_3D( '', #130, #131, #132 );
#109 = EDGE_LOOP( '', ( #133 ) );
#110 = EDGE_LOOP( '', ( #134 ) );
#111 = AXIS2_PLACEMENT_3D( '', #135, #136, #137 );
#112 = EDGE_LOOP( '', ( #138 ) );
#113 = EDGE_LOOP( '', ( #139 ) );
#114 = AXIS2_PLACEMENT_3D( '', #140, #141, #142 );
#115 = EDGE_LOOP( '', ( #143 ) );
#116 = EDGE_LOOP( '', ( #144 ) );
#117 = AXIS2_PLACEMENT_3D( '', #145, #146, #147 );
#118 = EDGE_LOOP( '', ( #148 ) );
#119 = AXIS2_PLACEMENT_3D( '', #149, #150, #151 );
#120 = EDGE_LOOP( '', ( #152 ) );
#121 = EDGE_LOOP( '', ( #153 ) );
#122 = AXIS2_PLACEMENT_3D( '', #154, #155, #156 );
#123 = ORIENTED_EDGE( '', *, *, #157, .T. );
#124 = ORIENTED_EDGE( '', *, *, #158, .T. );
#125 = CARTESIAN_POINT( '', ( 0.000000000000000, 0.000000000000000, 25.0000000000000 ) );
#126 = DIRECTION( '', ( -0.000000000000000, -0.000000000000000, 1.00000000000000 ) );
#127 = DIRECTION( '', ( -1.00000000000000, 0.000000000000000, 0.000000000000000 ) );
#128 = ORIENTED_EDGE( '', *, *, #159, .F. );
#129 = VERTEX_POINT( '', #160 );
#130 = CARTESIAN_POINT( '', ( 0.000000000000000, 0.000000000000000, 16.0000000000000 ) );
#131 = DIRECTION( '', ( -0.000000000000000, -0.000000000000000, 1.00000000000000 ) );
#132 = DIRECTION( '', ( 0.000000000000000, 1.00000000000000, 0.000000000000000 ) );
#133 = ORIENTED_EDGE( '', *, *, #159, .T. );
#134 = ORIENTED_EDGE( '', *, *, #161, .F. );
#135 = CARTESIAN_POINT( '', ( 0.000000000000000, 0.000000000000000, 25.0000000000000 ) );
#136 = DIRECTION( '', ( -0.000000000000000, -0.000000000000000, 1.00000000000000 ) );
#137 = DIRECTION( '', ( 0.000000000000000, -1.00000000000000, 0.000000000000000 ) );
#138 = ORIENTED_EDGE( '', *, *, #162, .F. );
#139 = ORIENTED_EDGE( '', *, *, #157, .F. );
#140 = CARTESIAN_POINT( '', ( 0.000000000000000, 0.000000000000000, 1.50000000000000 ) );
#141 = DIRECTION( '', ( -0.000000000000000, -0.000000000000000, 1.00000000000000 ) );
#142 = DIRECTION( '', ( 1.00000000000000, 0.000000000000000, 0.000000000000000 ) );
#143 = ORIENTED_EDGE( '', *, *, #161, .T. );
#144 = ORIENTED_EDGE( '', *, *, #163, .T. );
#145 = CARTESIAN_POINT( '', ( 0.000000000000000, 0.000000000000000, 25.0000000000000 ) );
#146 = DIRECTION( '', ( 0.000000000000000, 0.000000000000000, 1.00000000000000 ) );
#147 = DIRECTION( '', ( 1.00000000000000, 0.000000000000000, 0.000000000000000 ) );
#148 = ORIENTED_EDGE( '', *, *, #162, .T. );
#149 = CARTESIAN_POINT( '', ( 0.000000000000000, 0.000000000000000, 0.000000000000000 ) );
#150 = DIRECTION( '', ( 0.000000000000000, 0.000000000000000, 1.00000000000000 ) );
#151 = DIRECTION( '', ( 1.00000000000000, 0.000000000000000, 0.000000000000000 ) );
#152 = ORIENTED_EDGE( '', *, *, #158, .F. );
#153 = ORIENTED_EDGE( '', *, *, #163, .F. );
#154 = CARTESIAN_POINT( '', ( 0.000000000000000, 0.000000000000000, 25.0000000000000 ) );
#155 = DIRECTION( '', ( -0.000000000000000, 0.000000000000000, -1.00000000000000 ) );
#156 = DIRECTION( '', ( -1.00000000000000, 0.000000000000000, 0.000000000000000 ) );
#157 = EDGE_CURVE( '', #164, #164, #165, .T. );
#158 = EDGE_CURVE( '', #166, #166, #167, .F. );
#159 = EDGE_CURVE( '', #168, #168, #169, .T. );
#160 = CARTESIAN_POINT( '', ( 0.000000000000000, 0.000000000000000, 15.0085799786045 ) );
#161 = EDGE_CURVE( '', #170, #170, #171, .T. );
#162 = EDGE_CURVE( '', #172, #172, #173, .F. );
#163 = EDGE_CURVE( '', #174, #174, #175, .T. );
#164 = VERTEX_POINT( '', #176 );
#165 = CIRCLE( '', #177, 4.00000000000000 );
#166 = VERTEX_POINT( '', #178 );
#167 = CIRCLE( '', #179, 4.00000000000000 );
#168 = VERTEX_POINT( '', #180 );
#169 = CIRCLE( '', #181, 1.65000000000000 );
#170 = VERTEX_POINT( '', #182 );
#171 = CIRCLE( '', #183, 1.65000000000000 );
#172 = VERTEX_POINT( '', #184 );
#173 = CIRCLE( '', #185, 3.13397459621556 );
#174 = VERTEX_POINT( '', #186 );
#175 = CIRCLE( '', #187, 3.50000000000000 );
#176 = CARTESIAN_POINT( '', ( 4.00000000000000, 0.000000000000000, 1.50000000000000 ) );
#177 = AXIS2_PLACEMENT_3D( '', #188, #189, #190 );
#178 = CARTESIAN_POINT( '', ( 4.00000000000000, 0.000000000000000, 24.5000000000000 ) );
#179 = AXIS2_PLACEMENT_3D( '', #191, #192, #193 );
#180 = CARTESIAN_POINT( '', ( 0.000000000000000, 1.65000000000000, 16.0000000000000 ) );
#181 = AXIS2_PLACEMENT_3D( '', #194, #195, #196 );
#182 = CARTESIAN_POINT( '', ( 0.000000000000000, -1.65000000000000, 25.0000000000000 ) );
#183 = AXIS2_PLACEMENT_3D( '', #197, #198, #199 );
#184 = CARTESIAN_POINT( '', ( 3.13397459621556, 0.000000000000000, 0.000000000000000 ) );
#185 = AXIS2_PLACEMENT_3D( '', #200, #201, #202 );
#186 = CARTESIAN_POINT( '', ( 3.50000000000000, 0.000000000000000, 25.0000000000000 ) );
#187 = AXIS2_PLACEMENT_3D( '', #203, #204, #205 );
#188 = CARTESIAN_POINT( '', ( 0.000000000000000, 0.000000000000000, 1.50000000000000 ) );
#189 = DIRECTION( '', ( 0.000000000000000, 0.000000000000000, 1.00000000000000 ) );
#190 = DIRECTION( '', ( 1.00000000000000, 0.000000000000000, 0.000000000000000 ) );
#191 = CARTESIAN_POINT( '', ( 0.000000000000000, 0.000000000000000, 24.5000000000000 ) );
#192 = DIRECTION( '', ( 0.000000000000000, 0.000000000000000, 1.00000000000000 ) );
#193 = DIRECTION( '', ( 1.00000000000000, 0.000000000000000, 0.000000000000000 ) );
#194 = CARTESIAN_POINT( '', ( 0.000000000000000, 0.000000000000000, 16.0000000000000 ) );
#195 = DIRECTION( '', ( 0.000000000000000, 0.000000000000000, -1.00000000000000 ) );
#196 = DIRECTION( '', ( 0.000000000000000, 1.00000000000000, 0.000000000000000 ) );
#197 = CARTESIAN_POINT( '', ( 0.000000000000000, 0.000000000000000, 25.0000000000000 ) );
#198 = DIRECTION( '', ( 0.000000000000000, 0.000000000000000, -1.00000000000000 ) );
#199 = DIRECTION( '', ( 0.000000000000000, -1.00000000000000, 0.000000000000000 ) );
#200 = CARTESIAN_POINT( '', ( 0.000000000000000, 0.000000000000000, 0.000000000000000 ) );
#201 = DIRECTION( '', ( 0.000000000000000, 0.000000000000000, 1.00000000000000 ) );
#202 = DIRECTION( '', ( 1.00000000000000, 0.000000000000000, 0.000000000000000 ) );
#203 = CARTESIAN_POINT( '', ( 0.000000000000000, 0.000000000000000, 25.0000000000000 ) );
#204 = DIRECTION( '', ( 0.000000000000000, 0.000000000000000, 1.00000000000000 ) );
#205 = DIRECTION( '', ( 1.00000000000000, 0.000000000000000, 0.000000000000000 ) );
ENDSEC;
END-ISO-10303-21;
