ISO-10303-21;
HEADER;
FILE_DESCRIPTION( ( 'Unknown' ), '1' );
FILE_NAME( 'f:/¼È¦s/PT-3D/PT12-3D/PT12A-3028.stp', 'Unknown', ( 'Unknown' ), ( 'Unknown' ), 'XStep 1.0', 'Unknown', '  ' );
FILE_SCHEMA( ( 'CONFIG_CONTROL_DESIGN' ) );
ENDSEC;
DATA;
#1 = DESIGN_CONTEXT( '', #27, 'design' );
#2 = APPLICATION_PROTOCOL_DEFINITION( 'INTERNATIONAL STANDARD', 'config_control_design', 1994, #27 );
#3 = PRODUCT_CATEGORY_RELATIONSHIP( 'NONE', 'NONE', #28, #29 );
#4 = DATE_AND_TIME( #30, #31 );
#5 = DATE_TIME_ROLE( 'creation_date' );
#6 = DATE_TIME_ROLE( 'classification_date' );
#7 = PERSON_AND_ORGANIZATION_ROLE( 'creator' );
#8 = PERSON_AND_ORGANIZATION_ROLE( 'design_supplier' );
#9 = PERSON_AND_ORGANIZATION_ROLE( 'classification_officer' );
#10 = PERSON_AND_ORGANIZATION_ROLE( 'design_owner' );
#11 = APPROVAL_PERSON_ORGANIZATION( #32, #33, #34 );
#12 = APPROVAL_DATE_TIME( #4, #33 );
#13 = CC_DESIGN_APPROVAL( #33, ( #35, #36, #37 ) );
#14 = CC_DESIGN_DATE_AND_TIME_ASSIGNMENT( #4, #5, ( #37 ) );
#15 = CC_DESIGN_DATE_AND_TIME_ASSIGNMENT( #4, #6, ( #35 ) );
#16 = CC_DESIGN_PERSON_AND_ORGANIZATION_ASSIGNMENT( #32, #10, ( #38 ) );
#17 = CC_DESIGN_PERSON_AND_ORGANIZATION_ASSIGNMENT( #32, #7, ( #37 ) );
#18 = CC_DESIGN_PERSON_AND_ORGANIZATION_ASSIGNMENT( #32, #7, ( #36 ) );
#19 = CC_DESIGN_PERSON_AND_ORGANIZATION_ASSIGNMENT( #32, #8, ( #36 ) );
#20 = CC_DESIGN_SECURITY_CLASSIFICATION( #35, ( #36 ) );
#21 = CC_DESIGN_PERSON_AND_ORGANIZATION_ASSIGNMENT( #32, #9, ( #35 ) );
#22 = SHAPE_DEFINITION_REPRESENTATION( #39, #40 );
#23 =  ( GEOMETRIC_REPRESENTATION_CONTEXT( 3 )GLOBAL_UNCERTAINTY_ASSIGNED_CONTEXT( ( #43 ) )GLOBAL_UNIT_ASSIGNED_CONTEXT( ( #45, #46, #47 ) )REPRESENTATION_CONTEXT( 'NONE', 'WORKSPACE' ) );
#27 = APPLICATION_CONTEXT( 'CONFIGURATION CONTROLLED 3D DESIGNS OF MECHANICAL PARTS AND ASSEMBLIES' );
#28 = PRODUCT_CATEGORY( 'part', 'NONE' );
#29 = PRODUCT_RELATED_PRODUCT_CATEGORY( 'detail', ' ', ( #38 ) );
#30 = CALENDAR_DATE( 2009, 9, 10 );
#31 = LOCAL_TIME( 10, 35, 46.0000000000000, #49 );
#32 = PERSON_AND_ORGANIZATION( #50, #51 );
#33 = APPROVAL( #52, 'SOLID MODEL' );
#34 = APPROVAL_ROLE( 'APPROVED' );
#35 = SECURITY_CLASSIFICATION( '', '', #53 );
#36 = PRODUCT_DEFINITION_FORMATION_WITH_SPECIFIED_SOURCE( ' ', 'NONE', #38, .NOT_KNOWN. );
#37 = PRODUCT_DEFINITION( 'NONE', 'NONE', #36, #1 );
#38 = PRODUCT( '1', '1', 'PART-1-DESC', ( #54 ) );
#39 = PRODUCT_DEFINITION_SHAPE( 'NONE', 'NONE', #37 );
#40 = ADVANCED_BREP_SHAPE_REPRESENTATION( '1', ( #55, #56 ), #23 );
#43 = UNCERTAINTY_MEASURE_WITH_UNIT( LENGTH_MEASURE( 0.00100000000000000 ), #45, '', '' );
#45 =  ( CONVERSION_BASED_UNIT( 'MILLIMETRE', #59 )LENGTH_UNIT(  )NAMED_UNIT( #62 ) );
#46 =  ( NAMED_UNIT( #64 )PLANE_ANGLE_UNIT(  )SI_UNIT( $, .RADIAN. ) );
#47 =  ( NAMED_UNIT( #64 )SOLID_ANGLE_UNIT(  )SI_UNIT( $, .STERADIAN. ) );
#49 = COORDINATED_UNIVERSAL_TIME_OFFSET( 8, 0, .AHEAD. );
#50 = PERSON( '', 'UNSPECIFIED', $, $, $, $ );
#51 = ORGANIZATION( 'UNSPECIFIED', 'UNSPECIFIED', 'UNSPECIFIED' );
#52 = APPROVAL_STATUS( 'approved' );
#53 = SECURITY_CLASSIFICATION_LEVEL( 'unclassified' );
#54 = MECHANICAL_CONTEXT( '', #27, 'mechanical' );
#55 = MANIFOLD_SOLID_BREP( '1', #70 );
#56 = AXIS2_PLACEMENT_3D( '', #71, #72, #73 );
#59 = LENGTH_MEASURE_WITH_UNIT( LENGTH_MEASURE( 1.00000000000000 ), #74 );
#62 = DIMENSIONAL_EXPONENTS( 1.00000000000000, 0.000000000000000, 0.000000000000000, 0.000000000000000, 0.000000000000000, 0.000000000000000, 0.000000000000000 );
#64 = DIMENSIONAL_EXPONENTS( 0.000000000000000, 0.000000000000000, 0.000000000000000, 0.000000000000000, 0.000000000000000, 0.000000000000000, 0.000000000000000 );
#70 = CLOSED_SHELL( '', ( #75, #76, #77, #78, #79, #80, #81, #82, #83, #84, #85, #86 ) );
#71 = CARTESIAN_POINT( '', ( 0.000000000000000, 0.000000000000000, 0.000000000000000 ) );
#72 = DIRECTION( '', ( 0.000000000000000, 0.000000000000000, 1.00000000000000 ) );
#73 = DIRECTION( '', ( 1.00000000000000, 0.000000000000000, 0.000000000000000 ) );
#74 =  ( NAMED_UNIT( #62 )LENGTH_UNIT(  )SI_UNIT( .MILLI., .METRE. ) );
#75 = ADVANCED_FACE( '', ( #88 ), #89, .T. );
#76 = ADVANCED_FACE( '', ( #90, #91 ), #92, .T. );
#77 = ADVANCED_FACE( '', ( #93 ), #94, .F. );
#78 = ADVANCED_FACE( '', ( #95 ), #96, .F. );
#79 = ADVANCED_FACE( '', ( #97, #98 ), #99, .T. );
#80 = ADVANCED_FACE( '', ( #100, #101 ), #102, .T. );
#81 = ADVANCED_FACE( '', ( #103 ), #104, .F. );
#82 = ADVANCED_FACE( '', ( #105 ), #106, .T. );
#83 = ADVANCED_FACE( '', ( #107 ), #108, .F. );
#84 = ADVANCED_FACE( '', ( #109 ), #110, .F. );
#85 = ADVANCED_FACE( '', ( #111 ), #112, .F. );
#86 = ADVANCED_FACE( '', ( #113, #114 ), #115, .F. );
#88 = FACE_OUTER_BOUND( '', #116, .T. );
#89 = PLANE( '', #117 );
#90 = FACE_OUTER_BOUND( '', #118, .T. );
#91 = FACE_OUTER_BOUND( '', #119, .T. );
#92 = CYLINDRICAL_SURFACE( '', #120, 5.00000000000000 );
#93 = FACE_OUTER_BOUND( '', #121, .T. );
#94 = PLANE( '', #122 );
#95 = FACE_OUTER_BOUND( '', #123, .T. );
#96 = PLANE( '', #124 );
#97 = FACE_OUTER_BOUND( '', #125, .T. );
#98 = FACE_OUTER_BOUND( '', #126, .T. );
#99 = CYLINDRICAL_SURFACE( '', #127, 15.0000000000000 );
#100 = FACE_BOUND( '', #128, .T. );
#101 = FACE_OUTER_BOUND( '', #129, .T. );
#102 = CONICAL_SURFACE( '', #130, 5.00000000000000, 0.785398163397448 );
#103 = FACE_OUTER_BOUND( '', #131, .T. );
#104 = PLANE( '', #132 );
#105 = FACE_OUTER_BOUND( '', #133, .T. );
#106 = PLANE( '', #134 );
#107 = FACE_OUTER_BOUND( '', #135, .T. );
#108 = PLANE( '', #136 );
#109 = FACE_OUTER_BOUND( '', #137, .T. );
#110 = PLANE( '', #138 );
#111 = FACE_OUTER_BOUND( '', #139, .T. );
#112 = PLANE( '', #140 );
#113 = FACE_OUTER_BOUND( '', #141, .T. );
#114 = FACE_BOUND( '', #142, .T. );
#115 = PLANE( '', #143 );
#116 = EDGE_LOOP( '', ( #144, #145 ) );
#117 = AXIS2_PLACEMENT_3D( '', #146, #147, #148 );
#118 = EDGE_LOOP( '', ( #149 ) );
#119 = EDGE_LOOP( '', ( #150 ) );
#120 = AXIS2_PLACEMENT_3D( '', #151, #152, #153 );
#121 = EDGE_LOOP( '', ( #154, #155, #156, #157 ) );
#122 = AXIS2_PLACEMENT_3D( '', #158, #159, #160 );
#123 = EDGE_LOOP( '', ( #161, #162, #163, #164 ) );
#124 = AXIS2_PLACEMENT_3D( '', #165, #166, #167 );
#125 = EDGE_LOOP( '', ( #168, #169, #170, #171, #172, #173, #174, #175, #176, #177, #178, #179 ) );
#126 = EDGE_LOOP( '', ( #180 ) );
#127 = AXIS2_PLACEMENT_3D( '', #181, #182, #183 );
#128 = EDGE_LOOP( '', ( #184 ) );
#129 = EDGE_LOOP( '', ( #185 ) );
#130 = AXIS2_PLACEMENT_3D( '', #186, #187, #188 );
#131 = EDGE_LOOP( '', ( #189, #190, #191, #192 ) );
#132 = AXIS2_PLACEMENT_3D( '', #193, #194, #195 );
#133 = EDGE_LOOP( '', ( #196, #197 ) );
#134 = AXIS2_PLACEMENT_3D( '', #198, #199, #200 );
#135 = EDGE_LOOP( '', ( #201 ) );
#136 = AXIS2_PLACEMENT_3D( '', #202, #203, #204 );
#137 = EDGE_LOOP( '', ( #205, #206, #207, #208 ) );
#138 = AXIS2_PLACEMENT_3D( '', #209, #210, #211 );
#139 = EDGE_LOOP( '', ( #212, #213, #214, #215 ) );
#140 = AXIS2_PLACEMENT_3D( '', #216, #217, #218 );
#141 = EDGE_LOOP( '', ( #219 ) );
#142 = EDGE_LOOP( '', ( #220 ) );
#143 = AXIS2_PLACEMENT_3D( '', #221, #222, #223 );
#144 = ORIENTED_EDGE( '', *, *, #224, .F. );
#145 = ORIENTED_EDGE( '', *, *, #225, .T. );
#146 = CARTESIAN_POINT( '', ( 0.000000000000000, 0.000000000000000, 28.0000000000000 ) );
#147 = DIRECTION( '', ( 0.000000000000000, 0.000000000000000, 1.00000000000000 ) );
#148 = DIRECTION( '', ( 1.00000000000000, 0.000000000000000, 0.000000000000000 ) );
#149 = ORIENTED_EDGE( '', *, *, #226, .T. );
#150 = ORIENTED_EDGE( '', *, *, #227, .F. );
#151 = CARTESIAN_POINT( '', ( 0.000000000000000, 0.000000000000000, 10.0000000000000 ) );
#152 = DIRECTION( '', ( -0.000000000000000, -0.000000000000000, 1.00000000000000 ) );
#153 = DIRECTION( '', ( -1.00000000000000, 0.000000000000000, 0.000000000000000 ) );
#154 = ORIENTED_EDGE( '', *, *, #228, .T. );
#155 = ORIENTED_EDGE( '', *, *, #229, .F. );
#156 = ORIENTED_EDGE( '', *, *, #230, .F. );
#157 = ORIENTED_EDGE( '', *, *, #231, .F. );
#158 = CARTESIAN_POINT( '', ( -2.00000000000000, -15.0000000000000, 17.0000000000000 ) );
#159 = DIRECTION( '', ( -0.707106781186548, 0.000000000000000, -0.707106781186548 ) );
#160 = DIRECTION( '', ( -0.707106781186548, 0.000000000000000, 0.707106781186548 ) );
#161 = ORIENTED_EDGE( '', *, *, #228, .F. );
#162 = ORIENTED_EDGE( '', *, *, #232, .F. );
#163 = ORIENTED_EDGE( '', *, *, #233, .T. );
#164 = ORIENTED_EDGE( '', *, *, #234, .F. );
#165 = CARTESIAN_POINT( '', ( -2.00000000000000, -15.0000000000000, 13.0000000000000 ) );
#166 = DIRECTION( '', ( -1.00000000000000, 0.000000000000000, 3.25260651745651E-016 ) );
#167 = DIRECTION( '', ( 3.25260651745651E-016, 0.000000000000000, 1.00000000000000 ) );
#168 = ORIENTED_EDGE( '', *, *, #225, .F. );
#169 = ORIENTED_EDGE( '', *, *, #235, .T. );
#170 = ORIENTED_EDGE( '', *, *, #236, .T. );
#171 = ORIENTED_EDGE( '', *, *, #237, .T. );
#172 = ORIENTED_EDGE( '', *, *, #232, .T. );
#173 = ORIENTED_EDGE( '', *, *, #231, .T. );
#174 = ORIENTED_EDGE( '', *, *, #238, .F. );
#175 = ORIENTED_EDGE( '', *, *, #229, .T. );
#176 = ORIENTED_EDGE( '', *, *, #234, .T. );
#177 = ORIENTED_EDGE( '', *, *, #239, .T. );
#178 = ORIENTED_EDGE( '', *, *, #240, .T. );
#179 = ORIENTED_EDGE( '', *, *, #241, .T. );
#180 = ORIENTED_EDGE( '', *, *, #242, .T. );
#181 = CARTESIAN_POINT( '', ( 0.000000000000000, 0.000000000000000, 28.0000000000000 ) );
#182 = DIRECTION( '', ( -0.000000000000000, -0.000000000000000, 1.00000000000000 ) );
#183 = DIRECTION( '', ( -1.00000000000000, 0.000000000000000, 0.000000000000000 ) );
#184 = ORIENTED_EDGE( '', *, *, #243, .F. );
#185 = ORIENTED_EDGE( '', *, *, #226, .F. );
#186 = CARTESIAN_POINT( '', ( 0.000000000000000, 0.000000000000000, 0.500000000000000 ) );
#187 = DIRECTION( '', ( -0.000000000000000, -0.000000000000000, 1.00000000000000 ) );
#188 = DIRECTION( '', ( 1.00000000000000, 0.000000000000000, 0.000000000000000 ) );
#189 = ORIENTED_EDGE( '', *, *, #244, .F. );
#190 = ORIENTED_EDGE( '', *, *, #235, .F. );
#191 = ORIENTED_EDGE( '', *, *, #224, .T. );
#192 = ORIENTED_EDGE( '', *, *, #241, .F. );
#193 = CARTESIAN_POINT( '', ( 13.0000000000000, -15.0000000000000, 28.0000000000000 ) );
#194 = DIRECTION( '', ( 0.707106781186548, 0.000000000000000, -0.707106781186548 ) );
#195 = DIRECTION( '', ( -0.707106781186548, 0.000000000000000, -0.707106781186548 ) );
#196 = ORIENTED_EDGE( '', *, *, #230, .T. );
#197 = ORIENTED_EDGE( '', *, *, #238, .T. );
#198 = CARTESIAN_POINT( '', ( 0.000000000000000, 0.000000000000000, 28.0000000000000 ) );
#199 = DIRECTION( '', ( 0.000000000000000, 0.000000000000000, 1.00000000000000 ) );
#200 = DIRECTION( '', ( 1.00000000000000, 0.000000000000000, 0.000000000000000 ) );
#201 = ORIENTED_EDGE( '', *, *, #243, .T. );
#202 = CARTESIAN_POINT( '', ( 0.000000000000000, 0.000000000000000, 0.000000000000000 ) );
#203 = DIRECTION( '', ( 0.000000000000000, 0.000000000000000, 1.00000000000000 ) );
#204 = DIRECTION( '', ( 1.00000000000000, 0.000000000000000, 0.000000000000000 ) );
#205 = ORIENTED_EDGE( '', *, *, #244, .T. );
#206 = ORIENTED_EDGE( '', *, *, #240, .F. );
#207 = ORIENTED_EDGE( '', *, *, #245, .F. );
#208 = ORIENTED_EDGE( '', *, *, #236, .F. );
#209 = CARTESIAN_POINT( '', ( 2.00000000000000, -15.0000000000000, 17.0000000000000 ) );
#210 = DIRECTION( '', ( 1.00000000000000, 0.000000000000000, 3.25260651745651E-016 ) );
#211 = DIRECTION( '', ( 3.25260651745651E-016, 0.000000000000000, -1.00000000000000 ) );
#212 = ORIENTED_EDGE( '', *, *, #233, .F. );
#213 = ORIENTED_EDGE( '', *, *, #237, .F. );
#214 = ORIENTED_EDGE( '', *, *, #245, .T. );
#215 = ORIENTED_EDGE( '', *, *, #239, .F. );
#216 = CARTESIAN_POINT( '', ( 2.00000000000000, -15.0000000000000, 13.0000000000000 ) );
#217 = DIRECTION( '', ( 0.000000000000000, 0.000000000000000, -1.00000000000000 ) );
#218 = DIRECTION( '', ( -1.00000000000000, 0.000000000000000, 0.000000000000000 ) );
#219 = ORIENTED_EDGE( '', *, *, #242, .F. );
#220 = ORIENTED_EDGE( '', *, *, #227, .T. );
#221 = CARTESIAN_POINT( '', ( 0.000000000000000, 0.000000000000000, 10.0000000000000 ) );
#222 = DIRECTION( '', ( 0.000000000000000, 0.000000000000000, 1.00000000000000 ) );
#223 = DIRECTION( '', ( 1.00000000000000, 0.000000000000000, 0.000000000000000 ) );
#224 = EDGE_CURVE( '', #246, #247, #248, .T. );
#225 = EDGE_CURVE( '', #246, #247, #249, .T. );
#226 = EDGE_CURVE( '', #250, #250, #251, .T. );
#227 = EDGE_CURVE( '', #252, #252, #253, .T. );
#228 = EDGE_CURVE( '', #254, #255, #256, .T. );
#229 = EDGE_CURVE( '', #257, #255, #258, .T. );
#230 = EDGE_CURVE( '', #259, #257, #260, .T. );
#231 = EDGE_CURVE( '', #254, #259, #261, .T. );
#232 = EDGE_CURVE( '', #262, #254, #263, .F. );
#233 = EDGE_CURVE( '', #262, #264, #265, .T. );
#234 = EDGE_CURVE( '', #255, #264, #266, .T. );
#235 = EDGE_CURVE( '', #246, #267, #268, .T. );
#236 = EDGE_CURVE( '', #267, #269, #270, .T. );
#237 = EDGE_CURVE( '', #269, #262, #271, .T. );
#238 = EDGE_CURVE( '', #257, #259, #272, .T. );
#239 = EDGE_CURVE( '', #264, #273, #274, .T. );
#240 = EDGE_CURVE( '', #273, #275, #276, .F. );
#241 = EDGE_CURVE( '', #275, #247, #277, .T. );
#242 = EDGE_CURVE( '', #278, #278, #279, .T. );
#243 = EDGE_CURVE( '', #280, #280, #281, .F. );
#244 = EDGE_CURVE( '', #267, #275, #282, .T. );
#245 = EDGE_CURVE( '', #269, #273, #283, .T. );
#246 = VERTEX_POINT( '', #284 );
#247 = VERTEX_POINT( '', #285 );
#248 = LINE( '', #286, #287 );
#249 = CIRCLE( '', #288, 15.0000000000000 );
#250 = VERTEX_POINT( '', #289 );
#251 = CIRCLE( '', #290, 5.00000000000000 );
#252 = VERTEX_POINT( '', #291 );
#253 = CIRCLE( '', #292, 5.00000000000000 );
#254 = VERTEX_POINT( '', #293 );
#255 = VERTEX_POINT( '', #294 );
#256 = LINE( '', #295, #296 );
#257 = VERTEX_POINT( '', #297 );
#258 = ELLIPSE( '', #298, 21.2132034355964, 15.0000000000000 );
#259 = VERTEX_POINT( '', #299 );
#260 = LINE( '', #300, #301 );
#261 = ELLIPSE( '', #302, 21.2132034355964, 15.0000000000000 );
#262 = VERTEX_POINT( '', #303 );
#263 = LINE( '', #304, #305 );
#264 = VERTEX_POINT( '', #306 );
#265 = LINE( '', #307, #308 );
#266 = LINE( '', #309, #310 );
#267 = VERTEX_POINT( '', #311 );
#268 = ELLIPSE( '', #312, 21.2132034355964, 15.0000000000000 );
#269 = VERTEX_POINT( '', #313 );
#270 = LINE( '', #314, #315 );
#271 = CIRCLE( '', #316, 15.0000000000000 );
#272 = CIRCLE( '', #317, 15.0000000000000 );
#273 = VERTEX_POINT( '', #318 );
#274 = CIRCLE( '', #319, 15.0000000000000 );
#275 = VERTEX_POINT( '', #320 );
#276 = LINE( '', #321, #322 );
#277 = ELLIPSE( '', #323, 21.2132034355964, 15.0000000000000 );
#278 = VERTEX_POINT( '', #324 );
#279 = CIRCLE( '', #325, 15.0000000000000 );
#280 = VERTEX_POINT( '', #326 );
#281 = CIRCLE( '', #327, 4.50000000000000 );
#282 = LINE( '', #328, #329 );
#283 = LINE( '', #330, #331 );
#284 = CARTESIAN_POINT( '', ( 13.0000000000000, -7.48331477354787, 28.0000000000000 ) );
#285 = CARTESIAN_POINT( '', ( 13.0000000000000, 7.48331477354787, 28.0000000000000 ) );
#286 = CARTESIAN_POINT( '', ( 13.0000000000000, -15.0000000000000, 28.0000000000000 ) );
#287 = VECTOR( '', #332, 1000.00000000000 );
#288 = AXIS2_PLACEMENT_3D( '', #333, #334, #335 );
#289 = CARTESIAN_POINT( '', ( 5.00000000000000, 0.000000000000000, 0.500000000000000 ) );
#290 = AXIS2_PLACEMENT_3D( '', #336, #337, #338 );
#291 = CARTESIAN_POINT( '', ( 5.00000000000000, 0.000000000000000, 10.0000000000000 ) );
#292 = AXIS2_PLACEMENT_3D( '', #339, #340, #341 );
#293 = CARTESIAN_POINT( '', ( -2.00000000000000, -14.8660687473185, 17.0000000000000 ) );
#294 = CARTESIAN_POINT( '', ( -2.00000000000000, 14.8660687473185, 17.0000000000000 ) );
#295 = CARTESIAN_POINT( '', ( -2.00000000000000, -15.0000000000000, 17.0000000000000 ) );
#296 = VECTOR( '', #342, 1000.00000000000 );
#297 = CARTESIAN_POINT( '', ( -13.0000000000000, 7.48331477354787, 28.0000000000000 ) );
#298 = AXIS2_PLACEMENT_3D( '', #343, #344, #345 );
#299 = CARTESIAN_POINT( '', ( -13.0000000000000, -7.48331477354787, 28.0000000000000 ) );
#300 = CARTESIAN_POINT( '', ( -13.0000000000000, -15.0000000000000, 28.0000000000000 ) );
#301 = VECTOR( '', #346, 1000.00000000000 );
#302 = AXIS2_PLACEMENT_3D( '', #347, #348, #349 );
#303 = CARTESIAN_POINT( '', ( -2.00000000000000, -14.8660687473185, 13.0000000000000 ) );
#304 = CARTESIAN_POINT( '', ( -2.00000000000000, -14.8660687473185, 28.0000000000000 ) );
#305 = VECTOR( '', #350, 1000.00000000000 );
#306 = CARTESIAN_POINT( '', ( -2.00000000000000, 14.8660687473185, 13.0000000000000 ) );
#307 = CARTESIAN_POINT( '', ( -2.00000000000000, -15.0000000000000, 13.0000000000000 ) );
#308 = VECTOR( '', #351, 1000.00000000000 );
#309 = CARTESIAN_POINT( '', ( -2.00000000000000, 14.8660687473185, 28.0000000000000 ) );
#310 = VECTOR( '', #352, 1000.00000000000 );
#311 = CARTESIAN_POINT( '', ( 2.00000000000000, -14.8660687473185, 17.0000000000000 ) );
#312 = AXIS2_PLACEMENT_3D( '', #353, #354, #355 );
#313 = CARTESIAN_POINT( '', ( 2.00000000000000, -14.8660687473185, 13.0000000000000 ) );
#314 = CARTESIAN_POINT( '', ( 2.00000000000000, -14.8660687473185, 28.0000000000000 ) );
#315 = VECTOR( '', #356, 1000.00000000000 );
#316 = AXIS2_PLACEMENT_3D( '', #357, #358, #359 );
#317 = AXIS2_PLACEMENT_3D( '', #360, #361, #362 );
#318 = CARTESIAN_POINT( '', ( 2.00000000000000, 14.8660687473185, 13.0000000000000 ) );
#319 = AXIS2_PLACEMENT_3D( '', #363, #364, #365 );
#320 = CARTESIAN_POINT( '', ( 2.00000000000000, 14.8660687473185, 17.0000000000000 ) );
#321 = CARTESIAN_POINT( '', ( 2.00000000000000, 14.8660687473185, 28.0000000000000 ) );
#322 = VECTOR( '', #366, 1000.00000000000 );
#323 = AXIS2_PLACEMENT_3D( '', #367, #368, #369 );
#324 = CARTESIAN_POINT( '', ( 0.000000000000000, 15.0000000000000, 10.0000000000000 ) );
#325 = AXIS2_PLACEMENT_3D( '', #370, #371, #372 );
#326 = CARTESIAN_POINT( '', ( 4.50000000000000, 0.000000000000000, 0.000000000000000 ) );
#327 = AXIS2_PLACEMENT_3D( '', #373, #374, #375 );
#328 = CARTESIAN_POINT( '', ( 2.00000000000000, -15.0000000000000, 17.0000000000000 ) );
#329 = VECTOR( '', #376, 1000.00000000000 );
#330 = CARTESIAN_POINT( '', ( 2.00000000000000, -15.0000000000000, 13.0000000000000 ) );
#331 = VECTOR( '', #377, 1000.00000000000 );
#332 = DIRECTION( '', ( 0.000000000000000, 1.00000000000000, 0.000000000000000 ) );
#333 = CARTESIAN_POINT( '', ( 0.000000000000000, 0.000000000000000, 28.0000000000000 ) );
#334 = DIRECTION( '', ( 0.000000000000000, -0.000000000000000, 1.00000000000000 ) );
#335 = DIRECTION( '', ( 0.000000000000000, 1.00000000000000, 0.000000000000000 ) );
#336 = CARTESIAN_POINT( '', ( 0.000000000000000, 0.000000000000000, 0.500000000000000 ) );
#337 = DIRECTION( '', ( 0.000000000000000, 0.000000000000000, 1.00000000000000 ) );
#338 = DIRECTION( '', ( 1.00000000000000, 0.000000000000000, 0.000000000000000 ) );
#339 = CARTESIAN_POINT( '', ( 0.000000000000000, 0.000000000000000, 10.0000000000000 ) );
#340 = DIRECTION( '', ( 0.000000000000000, 0.000000000000000, 1.00000000000000 ) );
#341 = DIRECTION( '', ( 1.00000000000000, 0.000000000000000, 0.000000000000000 ) );
#342 = DIRECTION( '', ( 0.000000000000000, 1.00000000000000, 0.000000000000000 ) );
#343 = CARTESIAN_POINT( '', ( 0.000000000000000, 0.000000000000000, 15.0000000000000 ) );
#344 = DIRECTION( '', ( -0.707106781186548, 0.000000000000000, -0.707106781186548 ) );
#345 = DIRECTION( '', ( 0.707106781186548, 0.000000000000000, -0.707106781186548 ) );
#346 = DIRECTION( '', ( 0.000000000000000, 1.00000000000000, 0.000000000000000 ) );
#347 = CARTESIAN_POINT( '', ( 0.000000000000000, 0.000000000000000, 15.0000000000000 ) );
#348 = DIRECTION( '', ( -0.707106781186548, 0.000000000000000, -0.707106781186548 ) );
#349 = DIRECTION( '', ( 0.707106781186548, 0.000000000000000, -0.707106781186548 ) );
#350 = DIRECTION( '', ( 0.000000000000000, 0.000000000000000, -1.00000000000000 ) );
#351 = DIRECTION( '', ( 0.000000000000000, 1.00000000000000, 0.000000000000000 ) );
#352 = DIRECTION( '', ( 0.000000000000000, 0.000000000000000, -1.00000000000000 ) );
#353 = CARTESIAN_POINT( '', ( 0.000000000000000, 0.000000000000000, 15.0000000000000 ) );
#354 = DIRECTION( '', ( 0.707106781186548, 0.000000000000000, -0.707106781186548 ) );
#355 = DIRECTION( '', ( -0.707106781186548, 0.000000000000000, -0.707106781186548 ) );
#356 = DIRECTION( '', ( 0.000000000000000, 0.000000000000000, -1.00000000000000 ) );
#357 = CARTESIAN_POINT( '', ( 0.000000000000000, 0.000000000000000, 13.0000000000000 ) );
#358 = DIRECTION( '', ( 0.000000000000000, 0.000000000000000, -1.00000000000000 ) );
#359 = DIRECTION( '', ( -1.00000000000000, 0.000000000000000, 0.000000000000000 ) );
#360 = CARTESIAN_POINT( '', ( 0.000000000000000, 0.000000000000000, 28.0000000000000 ) );
#361 = DIRECTION( '', ( 0.000000000000000, -0.000000000000000, 1.00000000000000 ) );
#362 = DIRECTION( '', ( 0.000000000000000, 1.00000000000000, 0.000000000000000 ) );
#363 = CARTESIAN_POINT( '', ( 0.000000000000000, 0.000000000000000, 13.0000000000000 ) );
#364 = DIRECTION( '', ( 0.000000000000000, 0.000000000000000, -1.00000000000000 ) );
#365 = DIRECTION( '', ( -1.00000000000000, 0.000000000000000, 0.000000000000000 ) );
#366 = DIRECTION( '', ( 0.000000000000000, 0.000000000000000, -1.00000000000000 ) );
#367 = CARTESIAN_POINT( '', ( 0.000000000000000, 0.000000000000000, 15.0000000000000 ) );
#368 = DIRECTION( '', ( 0.707106781186548, 0.000000000000000, -0.707106781186548 ) );
#369 = DIRECTION( '', ( -0.707106781186548, 0.000000000000000, -0.707106781186548 ) );
#370 = CARTESIAN_POINT( '', ( 0.000000000000000, 0.000000000000000, 10.0000000000000 ) );
#371 = DIRECTION( '', ( 0.000000000000000, -0.000000000000000, 1.00000000000000 ) );
#372 = DIRECTION( '', ( 0.000000000000000, 1.00000000000000, 0.000000000000000 ) );
#373 = CARTESIAN_POINT( '', ( 0.000000000000000, 0.000000000000000, 0.000000000000000 ) );
#374 = DIRECTION( '', ( 0.000000000000000, 0.000000000000000, 1.00000000000000 ) );
#375 = DIRECTION( '', ( 1.00000000000000, 0.000000000000000, 0.000000000000000 ) );
#376 = DIRECTION( '', ( 0.000000000000000, 1.00000000000000, 0.000000000000000 ) );
#377 = DIRECTION( '', ( 0.000000000000000, 1.00000000000000, 0.000000000000000 ) );
ENDSEC;
END-ISO-10303-21;
