ISO-10303-21;
HEADER;
FILE_DESCRIPTION( ( 'Unknown' ), '1' );
FILE_NAME( 'S:/LEAVE 2D&3D CAD/LEAVE 3D-PAR/Metric/PT/PT30-3D/PT30-08.stp', 'Unknown', ( 'Unknown' ), ( 'Unknown' ), 'XStep 1.0', 'Unknown', '  ' );
FILE_SCHEMA( ( 'CONFIG_CONTROL_DESIGN' ) );
ENDSEC;
DATA;
#1 = DESIGN_CONTEXT( '', #27, 'design' );
#2 = APPLICATION_PROTOCOL_DEFINITION( 'INTERNATIONAL STANDARD', 'config_control_design', 1994, #27 );
#3 = PRODUCT_CATEGORY_RELATIONSHIP( 'NONE', 'NONE', #28, #29 );
#4 = DATE_AND_TIME( #30, #31 );
#5 = DATE_TIME_ROLE( 'creation_date' );
#6 = DATE_TIME_ROLE( 'classification_date' );
#7 = PERSON_AND_ORGANIZATION_ROLE( 'creator' );
#8 = PERSON_AND_ORGANIZATION_ROLE( 'design_supplier' );
#9 = PERSON_AND_ORGANIZATION_ROLE( 'classification_officer' );
#10 = PERSON_AND_ORGANIZATION_ROLE( 'design_owner' );
#11 = APPROVAL_PERSON_ORGANIZATION( #32, #33, #34 );
#12 = APPROVAL_DATE_TIME( #4, #33 );
#13 = CC_DESIGN_APPROVAL( #33, ( #35, #36, #37 ) );
#14 = CC_DESIGN_DATE_AND_TIME_ASSIGNMENT( #4, #5, ( #37 ) );
#15 = CC_DESIGN_DATE_AND_TIME_ASSIGNMENT( #4, #6, ( #35 ) );
#16 = CC_DESIGN_PERSON_AND_ORGANIZATION_ASSIGNMENT( #32, #10, ( #38 ) );
#17 = CC_DESIGN_PERSON_AND_ORGANIZATION_ASSIGNMENT( #32, #7, ( #37 ) );
#18 = CC_DESIGN_PERSON_AND_ORGANIZATION_ASSIGNMENT( #32, #7, ( #36 ) );
#19 = CC_DESIGN_PERSON_AND_ORGANIZATION_ASSIGNMENT( #32, #8, ( #36 ) );
#20 = CC_DESIGN_SECURITY_CLASSIFICATION( #35, ( #36 ) );
#21 = CC_DESIGN_PERSON_AND_ORGANIZATION_ASSIGNMENT( #32, #9, ( #35 ) );
#22 = SHAPE_DEFINITION_REPRESENTATION( #39, #40 );
#23 =  ( GEOMETRIC_REPRESENTATION_CONTEXT( 3 )GLOBAL_UNCERTAINTY_ASSIGNED_CONTEXT( ( #43 ) )GLOBAL_UNIT_ASSIGNED_CONTEXT( ( #45, #46, #47 ) )REPRESENTATION_CONTEXT( 'NONE', 'WORKSPACE' ) );
#27 = APPLICATION_CONTEXT( 'CONFIGURATION CONTROLLED 3D DESIGNS OF MECHANICAL PARTS AND ASSEMBLIES' );
#28 = PRODUCT_CATEGORY( 'part', 'NONE' );
#29 = PRODUCT_RELATED_PRODUCT_CATEGORY( 'detail', ' ', ( #38 ) );
#30 = CALENDAR_DATE( 2009, 10, 10 );
#31 = LOCAL_TIME( 15, 44, 38.0000000000000, #49 );
#32 = PERSON_AND_ORGANIZATION( #50, #51 );
#33 = APPROVAL( #52, 'SOLID MODEL' );
#34 = APPROVAL_ROLE( 'APPROVED' );
#35 = SECURITY_CLASSIFICATION( '', '', #53 );
#36 = PRODUCT_DEFINITION_FORMATION_WITH_SPECIFIED_SOURCE( ' ', 'NONE', #38, .NOT_KNOWN. );
#37 = PRODUCT_DEFINITION( 'NONE', 'NONE', #36, #1 );
#38 = PRODUCT( '1', '1', 'PART-1-DESC', ( #54 ) );
#39 = PRODUCT_DEFINITION_SHAPE( 'NONE', 'NONE', #37 );
#40 = ADVANCED_BREP_SHAPE_REPRESENTATION( '1', ( #55, #56 ), #23 );
#43 = UNCERTAINTY_MEASURE_WITH_UNIT( LENGTH_MEASURE( 0.00100000000000000 ), #45, '', '' );
#45 =  ( CONVERSION_BASED_UNIT( 'MILLIMETRE', #59 )LENGTH_UNIT(  )NAMED_UNIT( #62 ) );
#46 =  ( NAMED_UNIT( #64 )PLANE_ANGLE_UNIT(  )SI_UNIT( $, .RADIAN. ) );
#47 =  ( NAMED_UNIT( #64 )SOLID_ANGLE_UNIT(  )SI_UNIT( $, .STERADIAN. ) );
#49 = COORDINATED_UNIVERSAL_TIME_OFFSET( 8, 0, .AHEAD. );
#50 = PERSON( '', 'UNSPECIFIED', $, $, $, $ );
#51 = ORGANIZATION( 'UNSPECIFIED', 'UNSPECIFIED', 'UNSPECIFIED' );
#52 = APPROVAL_STATUS( 'approved' );
#53 = SECURITY_CLASSIFICATION_LEVEL( 'unclassified' );
#54 = MECHANICAL_CONTEXT( '', #27, 'mechanical' );
#55 = MANIFOLD_SOLID_BREP( '1', #70 );
#56 = AXIS2_PLACEMENT_3D( '', #71, #72, #73 );
#59 = LENGTH_MEASURE_WITH_UNIT( LENGTH_MEASURE( 1.00000000000000 ), #74 );
#62 = DIMENSIONAL_EXPONENTS( 1.00000000000000, 0.000000000000000, 0.000000000000000, 0.000000000000000, 0.000000000000000, 0.000000000000000, 0.000000000000000 );
#64 = DIMENSIONAL_EXPONENTS( 0.000000000000000, 0.000000000000000, 0.000000000000000, 0.000000000000000, 0.000000000000000, 0.000000000000000, 0.000000000000000 );
#70 = CLOSED_SHELL( '', ( #75, #76, #77, #78, #79, #80, #81, #82 ) );
#71 = CARTESIAN_POINT( '', ( 0.000000000000000, 0.000000000000000, 0.000000000000000 ) );
#72 = DIRECTION( '', ( 0.000000000000000, 0.000000000000000, 1.00000000000000 ) );
#73 = DIRECTION( '', ( 1.00000000000000, 0.000000000000000, 0.000000000000000 ) );
#74 =  ( NAMED_UNIT( #62 )LENGTH_UNIT(  )SI_UNIT( .MILLI., .METRE. ) );
#75 = ADVANCED_FACE( '', ( #84, #85 ), #86, .T. );
#76 = ADVANCED_FACE( '', ( #87, #88 ), #89, .T. );
#77 = ADVANCED_FACE( '', ( #90, #91 ), #92, .T. );
#78 = ADVANCED_FACE( '', ( #93 ), #94, .T. );
#79 = ADVANCED_FACE( '', ( #95, #96 ), #97, .T. );
#80 = ADVANCED_FACE( '', ( #98, #99 ), #100, .T. );
#81 = ADVANCED_FACE( '', ( #101 ), #102, .F. );
#82 = ADVANCED_FACE( '', ( #103 ), #104, .T. );
#84 = FACE_OUTER_BOUND( '', #105, .T. );
#85 = FACE_OUTER_BOUND( '', #106, .T. );
#86 = TOROIDAL_SURFACE( '', #107, 13.1500000000000, 3.15000000000000 );
#87 = FACE_BOUND( '', #108, .T. );
#88 = FACE_OUTER_BOUND( '', #109, .T. );
#89 = CONICAL_SURFACE( '', #110, 4.00000000000000, 0.785398163397448 );
#90 = FACE_OUTER_BOUND( '', #111, .T. );
#91 = FACE_BOUND( '', #112, .T. );
#92 = CONICAL_SURFACE( '', #113, 7.00000000000000, 0.141897054604164 );
#93 = FACE_OUTER_BOUND( '', #114, .T. );
#94 = PLANE( '', #115 );
#95 = FACE_BOUND( '', #116, .T. );
#96 = FACE_OUTER_BOUND( '', #117, .T. );
#97 = PLANE( '', #118 );
#98 = FACE_OUTER_BOUND( '', #119, .T. );
#99 = FACE_OUTER_BOUND( '', #120, .T. );
#100 = CYLINDRICAL_SURFACE( '', #121, 4.00000000000000 );
#101 = FACE_OUTER_BOUND( '', #122, .T. );
#102 = PLANE( '', #123 );
#103 = FACE_OUTER_BOUND( '', #124, .T. );
#104 = PLANE( '', #125 );
#105 = EDGE_LOOP( '', ( #126, #127, #128 ) );
#106 = EDGE_LOOP( '', ( #129, #130, #131 ) );
#107 = AXIS2_PLACEMENT_3D( '', #132, #133, #134 );
#108 = EDGE_LOOP( '', ( #135 ) );
#109 = EDGE_LOOP( '', ( #136 ) );
#110 = AXIS2_PLACEMENT_3D( '', #137, #138, #139 );
#111 = EDGE_LOOP( '', ( #140 ) );
#112 = EDGE_LOOP( '', ( #141, #142, #143, #144 ) );
#113 = AXIS2_PLACEMENT_3D( '', #145, #146, #147 );
#114 = EDGE_LOOP( '', ( #148, #149, #150 ) );
#115 = AXIS2_PLACEMENT_3D( '', #151, #152, #153 );
#116 = EDGE_LOOP( '', ( #154 ) );
#117 = EDGE_LOOP( '', ( #155 ) );
#118 = AXIS2_PLACEMENT_3D( '', #156, #157, #158 );
#119 = EDGE_LOOP( '', ( #159 ) );
#120 = EDGE_LOOP( '', ( #160 ) );
#121 = AXIS2_PLACEMENT_3D( '', #161, #162, #163 );
#122 = EDGE_LOOP( '', ( #164 ) );
#123 = AXIS2_PLACEMENT_3D( '', #165, #166, #167 );
#124 = EDGE_LOOP( '', ( #168, #169, #170 ) );
#125 = AXIS2_PLACEMENT_3D( '', #171, #172, #173 );
#126 = ORIENTED_EDGE( '', *, *, #174, .F. );
#127 = ORIENTED_EDGE( '', *, *, #175, .F. );
#128 = ORIENTED_EDGE( '', *, *, #176, .F. );
#129 = ORIENTED_EDGE( '', *, *, #177, .F. );
#130 = ORIENTED_EDGE( '', *, *, #178, .F. );
#131 = ORIENTED_EDGE( '', *, *, #179, .F. );
#132 = CARTESIAN_POINT( '', ( 3.46944695195362E-015, 0.000000000000000, 0.000000000000000 ) );
#133 = DIRECTION( '', ( 6.12303176911189E-017, 1.00000000000000, 0.000000000000000 ) );
#134 = DIRECTION( '', ( -1.00000000000000, 6.12303176911189E-017, 0.000000000000000 ) );
#135 = ORIENTED_EDGE( '', *, *, #180, .F. );
#136 = ORIENTED_EDGE( '', *, *, #181, .F. );
#137 = CARTESIAN_POINT( '', ( 0.000000000000000, 0.000000000000000, -30.8000000000000 ) );
#138 = DIRECTION( '', ( -0.000000000000000, -0.000000000000000, 1.00000000000000 ) );
#139 = DIRECTION( '', ( 1.00000000000000, 0.000000000000000, 0.000000000000000 ) );
#140 = ORIENTED_EDGE( '', *, *, #182, .T. );
#141 = ORIENTED_EDGE( '', *, *, #183, .F. );
#142 = ORIENTED_EDGE( '', *, *, #176, .T. );
#143 = ORIENTED_EDGE( '', *, *, #184, .F. );
#144 = ORIENTED_EDGE( '', *, *, #179, .T. );
#145 = CARTESIAN_POINT( '', ( 0.000000000000000, 0.000000000000000, -10.0000000000000 ) );
#146 = DIRECTION( '', ( -0.000000000000000, 0.000000000000000, -1.00000000000000 ) );
#147 = DIRECTION( '', ( -1.00000000000000, 0.000000000000000, 0.000000000000000 ) );
#148 = ORIENTED_EDGE( '', *, *, #178, .T. );
#149 = ORIENTED_EDGE( '', *, *, #174, .T. );
#150 = ORIENTED_EDGE( '', *, *, #183, .T. );
#151 = CARTESIAN_POINT( '', ( 0.000000000000000, 0.000000000000000, -10.0000000000000 ) );
#152 = DIRECTION( '', ( 0.000000000000000, 0.000000000000000, 1.00000000000000 ) );
#153 = DIRECTION( '', ( 1.00000000000000, 0.000000000000000, 0.000000000000000 ) );
#154 = ORIENTED_EDGE( '', *, *, #185, .F. );
#155 = ORIENTED_EDGE( '', *, *, #182, .F. );
#156 = CARTESIAN_POINT( '', ( 8.00000000000000, 0.000000000000000, -17.0000000000000 ) );
#157 = DIRECTION( '', ( 0.000000000000000, 0.000000000000000, -1.00000000000000 ) );
#158 = DIRECTION( '', ( -1.00000000000000, 0.000000000000000, 0.000000000000000 ) );
#159 = ORIENTED_EDGE( '', *, *, #181, .T. );
#160 = ORIENTED_EDGE( '', *, *, #185, .T. );
#161 = CARTESIAN_POINT( '', ( 0.000000000000000, 0.000000000000000, -32.0000000000000 ) );
#162 = DIRECTION( '', ( -0.000000000000000, -0.000000000000000, -1.00000000000000 ) );
#163 = DIRECTION( '', ( 1.00000000000000, 0.000000000000000, 0.000000000000000 ) );
#164 = ORIENTED_EDGE( '', *, *, #180, .T. );
#165 = CARTESIAN_POINT( '', ( 0.000000000000000, 0.000000000000000, -32.0000000000000 ) );
#166 = DIRECTION( '', ( 0.000000000000000, 0.000000000000000, 1.00000000000000 ) );
#167 = DIRECTION( '', ( 1.00000000000000, 0.000000000000000, 0.000000000000000 ) );
#168 = ORIENTED_EDGE( '', *, *, #184, .T. );
#169 = ORIENTED_EDGE( '', *, *, #175, .T. );
#170 = ORIENTED_EDGE( '', *, *, #177, .T. );
#171 = CARTESIAN_POINT( '', ( 0.000000000000000, 0.000000000000000, -10.0000000000000 ) );
#172 = DIRECTION( '', ( 0.000000000000000, 0.000000000000000, 1.00000000000000 ) );
#173 = DIRECTION( '', ( 1.00000000000000, 0.000000000000000, 0.000000000000000 ) );
#174 = EDGE_CURVE( '', #186, #187, #188, .T. );
#175 = EDGE_CURVE( '', #189, #186, #190, .T. );
#176 = EDGE_CURVE( '', #187, #189, #191, .T. );
#177 = EDGE_CURVE( '', #186, #192, #193, .T. );
#178 = EDGE_CURVE( '', #194, #186, #195, .T. );
#179 = EDGE_CURVE( '', #192, #194, #196, .T. );
#180 = EDGE_CURVE( '', #197, #197, #198, .F. );
#181 = EDGE_CURVE( '', #199, #199, #200, .T. );
#182 = EDGE_CURVE( '', #201, #201, #202, .T. );
#183 = EDGE_CURVE( '', #187, #194, #203, .T. );
#184 = EDGE_CURVE( '', #192, #189, #204, .T. );
#185 = EDGE_CURVE( '', #205, #205, #206, .T. );
#186 = VERTEX_POINT( '', #207 );
#187 = VERTEX_POINT( '', #208 );
#188 = B_SPLINE_CURVE_WITH_KNOTS( '', 3, ( #209, #210, #211, #212, #213, #214, #215, #216, #217, #218 ), .UNSPECIFIED., .F., .F., ( 4, 2, 2, 2, 4 ), ( -2.00000000000046E-005, 0.00173110914459353, 0.00348221828918706, 0.00523332743378059, 0.00698443657837412 ), .UNSPECIFIED. );
#189 = VERTEX_POINT( '', #219 );
#190 = B_SPLINE_CURVE_WITH_KNOTS( '', 3, ( #220, #221, #222, #223, #224, #225, #226, #227, #228, #229 ), .UNSPECIFIED., .F., .F., ( 4, 2, 2, 2, 4 ), ( 0.0230588190923981, 0.0248120840649922, 0.0265653490375863, 0.0283186140101805, 0.0300718789827746 ), .UNSPECIFIED. );
#191 = B_SPLINE_CURVE_WITH_KNOTS( '', 3, ( #230, #231, #232, #233, #234, #235, #236, #237, #238, #239, #240, #241, #242, #243, #244, #245, #246, #247, #248, #249, #250, #251, #252, #253, #254, #255, #256, #257, #258, #259, #260, #261, #262, #263, #264, #265, #266, #267, #268, #269 ), .UNSPECIFIED., .F., .F., ( 4, 2, 2, 2, 2, 2, 2, 2, 2, 2, 2, 2, 2, 2, 2, 2, 2, 2, 2, 4 ), ( 2.11022239400633E-007, 0.000805083665291813, 0.00160995630834422, 0.00201239262987043, 0.00241482895139664, 0.00321970159444904, 0.00402457423750145, 0.00482944688055385, 0.00563431952360626, 0.00643919216665866, 0.00724406480971107, 0.00764650113123727, 0.00804893745276348, 0.00885381009581588, 0.00965868273886828, 0.0104635553819207, 0.0108659917034469, 0.0112684280249731, 0.0120733006680255, 0.0128781733110779 ), .UNSPECIFIED. );
#192 = VERTEX_POINT( '', #270 );
#193 = B_SPLINE_CURVE_WITH_KNOTS( '', 3, ( #271, #272, #273, #274, #275, #276, #277, #278, #279, #280 ), .UNSPECIFIED., .F., .F., ( 4, 2, 2, 2, 4 ), ( -2.00000000000046E-005, 0.00173110914459353, 0.00348221828918706, 0.00523332743378060, 0.00698443657837413 ), .UNSPECIFIED. );
#194 = VERTEX_POINT( '', #281 );
#195 = B_SPLINE_CURVE_WITH_KNOTS( '', 3, ( #282, #283, #284, #285, #286, #287, #288, #289, #290, #291 ), .UNSPECIFIED., .F., .F., ( 4, 2, 2, 2, 4 ), ( 0.0230588190923981, 0.0248120840649922, 0.0265653490375863, 0.0283186140101805, 0.0300718789827746 ), .UNSPECIFIED. );
#196 = B_SPLINE_CURVE_WITH_KNOTS( '', 3, ( #292, #293, #294, #295, #296, #297, #298, #299, #300, #301, #302, #303, #304, #305, #306, #307, #308, #309, #310, #311, #312, #313, #314, #315, #316, #317, #318, #319, #320, #321, #322, #323, #324, #325, #326, #327, #328, #329, #330, #331 ), .UNSPECIFIED., .F., .F., ( 4, 2, 2, 2, 2, 2, 2, 2, 2, 2, 2, 2, 2, 2, 2, 2, 2, 2, 2, 4 ), ( 2.11022239400633E-007, 0.000805083665291802, 0.00160995630834420, 0.00201239262987040, 0.00241482895139660, 0.00321970159444901, 0.00402457423750141, 0.00482944688055382, 0.00563431952360622, 0.00643919216665863, 0.00724406480971103, 0.00764650113123724, 0.00804893745276344, 0.00885381009581584, 0.00965868273886825, 0.0104635553819207, 0.0108659917034469, 0.0112684280249731, 0.0120733006680255, 0.0128781733110779 ), .UNSPECIFIED. );
#197 = VERTEX_POINT( '', #332 );
#198 = CIRCLE( '', #333, 2.80000000000000 );
#199 = VERTEX_POINT( '', #334 );
#200 = CIRCLE( '', #335, 4.00000000000000 );
#201 = VERTEX_POINT( '', #336 );
#202 = CIRCLE( '', #337, 8.00000000000000 );
#203 = CIRCLE( '', #338, 7.00000000000000 );
#204 = CIRCLE( '', #339, 7.00000000000000 );
#205 = VERTEX_POINT( '', #340 );
#206 = CIRCLE( '', #341, 4.00000000000000 );
#207 = CARTESIAN_POINT( '', ( 3.46944695195362E-015, 0.000000000000000, -10.0000000000000 ) );
#208 = CARTESIAN_POINT( '', ( 6.38228529718389, 2.87514075923366, -10.0000000000282 ) );
#209 = CARTESIAN_POINT( '', ( 3.46944695195362E-015, 0.000000000000000, -10.0000000000000 ) );
#210 = CARTESIAN_POINT( '', ( 0.509013440452573, 0.285682631453319, -10.0000000000000 ) );
#211 = CARTESIAN_POINT( '', ( 1.02058821162011, 0.572819422971268, -10.0000000000000 ) );
#212 = CARTESIAN_POINT( '', ( 2.04907969971825, 1.12896604859885, -10.0000000000000 ) );
#213 = CARTESIAN_POINT( '', ( 2.56723813939163, 1.39872560335006, -10.0000000000000 ) );
#214 = CARTESIAN_POINT( '', ( 3.61968854322356, 1.90396394272738, -10.0000000000000 ) );
#215 = CARTESIAN_POINT( '', ( 4.15392943584227, 2.13955124497582, -10.0000000000000 ) );
#216 = CARTESIAN_POINT( '', ( 5.24817586604414, 2.55598072095520, -10.0000000000000 ) );
#217 = CARTESIAN_POINT( '', ( 5.81230569120849, 2.73788949810277, -10.0000000000000 ) );
#218 = CARTESIAN_POINT( '', ( 6.38228529718532, 2.87514075922349, -10.0000000000000 ) );
#219 = CARTESIAN_POINT( '', ( 6.38228529718423, -2.87514075922311, -10.0000000000000 ) );
#220 = CARTESIAN_POINT( '', ( 6.38228529718421, -2.87514075922316, -10.0000000000000 ) );
#221 = CARTESIAN_POINT( '', ( 5.80752847782328, -2.73673914367788, -10.0000000000000 ) );
#222 = CARTESIAN_POINT( '', ( 5.25041207489927, -2.55667923420328, -10.0000000000000 ) );
#223 = CARTESIAN_POINT( '', ( 4.15937756948258, -2.14177603633081, -10.0000000000000 ) );
#224 = CARTESIAN_POINT( '', ( 3.62558331853132, -1.90664026935487, -10.0000000000000 ) );
#225 = CARTESIAN_POINT( '', ( 2.57275017995525, -1.40152356807455, -10.0000000000000 ) );
#226 = CARTESIAN_POINT( '', ( 2.05375288016194, -1.13144442304400, -10.0000000000000 ) );
#227 = CARTESIAN_POINT( '', ( 1.02300440521539, -0.574174224588704, -10.0000000000000 ) );
#228 = CARTESIAN_POINT( '', ( 0.509640097814257, -0.286034341455001, -10.0000000000000 ) );
#229 = CARTESIAN_POINT( '', ( 2.79046994691489E-015, 3.81074294060204E-016, -10.0000000000000 ) );
#230 = CARTESIAN_POINT( '', ( 6.38228529718389, 2.87514075923367, -10.0000000000282 ) );
#231 = CARTESIAN_POINT( '', ( 6.37923825986975, 2.97034502376320, -10.2542785999798 ) );
#232 = CARTESIAN_POINT( '', ( 6.38551912815692, 3.04267653815432, -10.5131037646924 ) );
#233 = CARTESIAN_POINT( '', ( 6.42385893609342, 3.13662338787254, -11.0405590733267 ) );
#234 = CARTESIAN_POINT( '', ( 6.45675831808349, 3.15774803433263, -11.3125267165442 ) );
#235 = CARTESIAN_POINT( '', ( 6.52727308647443, 3.14217203823017, -11.7093434938341 ) );
#236 = CARTESIAN_POINT( '', ( 6.55424890416780, 3.12929539803689, -11.8402637367739 ) );
#237 = CARTESIAN_POINT( '', ( 6.61507877955788, 3.08712604604398, -12.0993226532876 ) );
#238 = CARTESIAN_POINT( '', ( 6.64924673380534, 3.05748824276671, -12.2284628715475 ) );
#239 = CARTESIAN_POINT( '', ( 6.75897485618703, 2.94435058037636, -12.6024740996755 ) );
#240 = CARTESIAN_POINT( '', ( 6.84152376982915, 2.83765035503052, -12.8343497242436 ) );
#241 = CARTESIAN_POINT( '', ( 7.01604539404356, 2.55914953536876, -13.2652465153076 ) );
#242 = CARTESIAN_POINT( '', ( 7.10575193771256, 2.39025948515252, -13.4585838928905 ) );
#243 = CARTESIAN_POINT( '', ( 7.27396342497815, 2.00416259937913, -13.7947809420738 ) );
#244 = CARTESIAN_POINT( '', ( 7.35322750993057, 1.78431682639036, -13.9391671496088 ) );
#245 = CARTESIAN_POINT( '', ( 7.48451002603837, 1.31658453200506, -14.1689295095020 ) );
#246 = CARTESIAN_POINT( '', ( 7.53829424526554, 1.06214279277987, -14.2575444026510 ) );
#247 = CARTESIAN_POINT( '', ( 7.61022170324512, 0.541440382412246, -14.3745413298339 ) );
#248 = CARTESIAN_POINT( '', ( 7.62910282061830, 0.273716203767898, -14.4042098664400 ) );
#249 = CARTESIAN_POINT( '', ( 7.62928332587978, -0.269799047202610, -14.4044966787113 ) );
#250 = CARTESIAN_POINT( '', ( 7.61073820411893, -0.536152308517028, -14.3753653029498 ) );
#251 = CARTESIAN_POINT( '', ( 7.55696145574460, -0.927760126250673, -14.2879162872946 ) );
#252 = CARTESIAN_POINT( '', ( 7.53448657723935, -1.05767773552647, -14.2510386468776 ) );
#253 = CARTESIAN_POINT( '', ( 7.48246458981187, -1.30789706975656, -14.1638736499243 ) );
#254 = CARTESIAN_POINT( '', ( 7.45286989212434, -1.42890913517205, -14.1135170829643 ) );
#255 = CARTESIAN_POINT( '', ( 7.35469593415271, -1.77986728705244, -13.9418106480484 ) );
#256 = CARTESIAN_POINT( '', ( 7.27540645671717, -2.00034959782514, -13.7974740236723 ) );
#257 = CARTESIAN_POINT( '', ( 7.10771428748062, -2.38624603327032, -13.4626931578072 ) );
#258 = CARTESIAN_POINT( '', ( 7.01817296766254, -2.55535091981761, -13.2700569777053 ) );
#259 = CARTESIAN_POINT( '', ( 6.84347356186219, -2.83493302327786, -12.8395961258229 ) );
#260 = CARTESIAN_POINT( '', ( 6.76078493108987, -2.94215205295564, -12.6078986271045 ) );
#261 = CARTESIAN_POINT( '', ( 6.65079335242319, -3.05605417455312, -12.2340948063012 ) );
#262 = CARTESIAN_POINT( '', ( 6.61653598758438, -3.08593992057127, -12.1050478175080 ) );
#263 = CARTESIAN_POINT( '', ( 6.55547534450221, -3.12861355029467, -11.8459468385943 ) );
#264 = CARTESIAN_POINT( '', ( 6.52836627479593, -3.14173812313585, -11.7149176934946 ) );
#265 = CARTESIAN_POINT( '', ( 6.45744435675870, -3.15796989709348, -11.3175081644224 ) );
#266 = CARTESIAN_POINT( '', ( 6.42438119768925, -3.13725720088359, -11.0457983853584 ) );
#267 = CARTESIAN_POINT( '', ( 6.38563848612226, -3.04360428648928, -10.5166593899529 ) );
#268 = CARTESIAN_POINT( '', ( 6.37923486393288, -2.97045112932683, -10.2545619945717 ) );
#269 = CARTESIAN_POINT( '', ( 6.38228529718423, -2.87514075922311, -10.0000000000000 ) );
#270 = CARTESIAN_POINT( '', ( -6.38228529718389, -2.87514075923366, -10.0000000000282 ) );
#271 = CARTESIAN_POINT( '', ( 3.46944695195362E-015, 0.000000000000000, -10.0000000000000 ) );
#272 = CARTESIAN_POINT( '', ( -0.509013440452567, -0.285682631453319, -10.0000000000000 ) );
#273 = CARTESIAN_POINT( '', ( -1.02058821162011, -0.572819422971268, -10.0000000000000 ) );
#274 = CARTESIAN_POINT( '', ( -2.04907969971825, -1.12896604859885, -10.0000000000000 ) );
#275 = CARTESIAN_POINT( '', ( -2.56723813939163, -1.39872560335006, -10.0000000000000 ) );
#276 = CARTESIAN_POINT( '', ( -3.61968854322356, -1.90396394272738, -10.0000000000000 ) );
#277 = CARTESIAN_POINT( '', ( -4.15392943584227, -2.13955124497583, -10.0000000000000 ) );
#278 = CARTESIAN_POINT( '', ( -5.24817586604414, -2.55598072095521, -10.0000000000000 ) );
#279 = CARTESIAN_POINT( '', ( -5.81230569120849, -2.73788949810278, -10.0000000000000 ) );
#280 = CARTESIAN_POINT( '', ( -6.38228529718532, -2.87514075922349, -10.0000000000000 ) );
#281 = CARTESIAN_POINT( '', ( -6.38228529718423, 2.87514075922311, -10.0000000000000 ) );
#282 = CARTESIAN_POINT( '', ( -6.38228529718421, 2.87514075922316, -10.0000000000000 ) );
#283 = CARTESIAN_POINT( '', ( -5.80752847782328, 2.73673914367788, -10.0000000000000 ) );
#284 = CARTESIAN_POINT( '', ( -5.25041207489927, 2.55667923420328, -10.0000000000000 ) );
#285 = CARTESIAN_POINT( '', ( -4.15937756948258, 2.14177603633081, -10.0000000000000 ) );
#286 = CARTESIAN_POINT( '', ( -3.62558331853131, 1.90664026935487, -10.0000000000000 ) );
#287 = CARTESIAN_POINT( '', ( -2.57275017995524, 1.40152356807455, -10.0000000000000 ) );
#288 = CARTESIAN_POINT( '', ( -2.05375288016194, 1.13144442304400, -10.0000000000000 ) );
#289 = CARTESIAN_POINT( '', ( -1.02300440521539, 0.574174224588705, -10.0000000000000 ) );
#290 = CARTESIAN_POINT( '', ( -0.509640097814251, 0.286034341455002, -10.0000000000000 ) );
#291 = CARTESIAN_POINT( '', ( 3.46944695195362E-015, 0.000000000000000, -10.0000000000000 ) );
#292 = CARTESIAN_POINT( '', ( -6.38228529718389, -2.87514075923367, -10.0000000000282 ) );
#293 = CARTESIAN_POINT( '', ( -6.37923825986975, -2.97034502376320, -10.2542785999798 ) );
#294 = CARTESIAN_POINT( '', ( -6.38551912815692, -3.04267653815432, -10.5131037646924 ) );
#295 = CARTESIAN_POINT( '', ( -6.42385893609342, -3.13662338787254, -11.0405590733267 ) );
#296 = CARTESIAN_POINT( '', ( -6.45675831808349, -3.15774803433263, -11.3125267165442 ) );
#297 = CARTESIAN_POINT( '', ( -6.52727308647442, -3.14217203823017, -11.7093434938341 ) );
#298 = CARTESIAN_POINT( '', ( -6.55424890416780, -3.12929539803689, -11.8402637367739 ) );
#299 = CARTESIAN_POINT( '', ( -6.61507877955787, -3.08712604604398, -12.0993226532876 ) );
#300 = CARTESIAN_POINT( '', ( -6.64924673380534, -3.05748824276671, -12.2284628715475 ) );
#301 = CARTESIAN_POINT( '', ( -6.75897485618703, -2.94435058037636, -12.6024740996755 ) );
#302 = CARTESIAN_POINT( '', ( -6.84152376982915, -2.83765035503052, -12.8343497242436 ) );
#303 = CARTESIAN_POINT( '', ( -7.01604539404356, -2.55914953536876, -13.2652465153076 ) );
#304 = CARTESIAN_POINT( '', ( -7.10575193771255, -2.39025948515252, -13.4585838928905 ) );
#305 = CARTESIAN_POINT( '', ( -7.27396342497815, -2.00416259937913, -13.7947809420738 ) );
#306 = CARTESIAN_POINT( '', ( -7.35322750993057, -1.78431682639036, -13.9391671496088 ) );
#307 = CARTESIAN_POINT( '', ( -7.48451002603837, -1.31658453200506, -14.1689295095020 ) );
#308 = CARTESIAN_POINT( '', ( -7.53829424526554, -1.06214279277987, -14.2575444026510 ) );
#309 = CARTESIAN_POINT( '', ( -7.61022170324512, -0.541440382412248, -14.3745413298339 ) );
#310 = CARTESIAN_POINT( '', ( -7.62910282061830, -0.273716203767896, -14.4042098664400 ) );
#311 = CARTESIAN_POINT( '', ( -7.62928332587978, 0.269799047202610, -14.4044966787113 ) );
#312 = CARTESIAN_POINT( '', ( -7.61073820411894, 0.536152308517029, -14.3753653029498 ) );
#313 = CARTESIAN_POINT( '', ( -7.55696145574460, 0.927760126250674, -14.2879162872946 ) );
#314 = CARTESIAN_POINT( '', ( -7.53448657723935, 1.05767773552647, -14.2510386468776 ) );
#315 = CARTESIAN_POINT( '', ( -7.48246458981187, 1.30789706975656, -14.1638736499243 ) );
#316 = CARTESIAN_POINT( '', ( -7.45286989212434, 1.42890913517205, -14.1135170829643 ) );
#317 = CARTESIAN_POINT( '', ( -7.35469593415272, 1.77986728705244, -13.9418106480484 ) );
#318 = CARTESIAN_POINT( '', ( -7.27540645671717, 2.00034959782514, -13.7974740236723 ) );
#319 = CARTESIAN_POINT( '', ( -7.10771428748062, 2.38624603327032, -13.4626931578072 ) );
#320 = CARTESIAN_POINT( '', ( -7.01817296766253, 2.55535091981761, -13.2700569777053 ) );
#321 = CARTESIAN_POINT( '', ( -6.84347356186219, 2.83493302327786, -12.8395961258229 ) );
#322 = CARTESIAN_POINT( '', ( -6.76078493108987, 2.94215205295564, -12.6078986271045 ) );
#323 = CARTESIAN_POINT( '', ( -6.65079335242319, 3.05605417455312, -12.2340948063012 ) );
#324 = CARTESIAN_POINT( '', ( -6.61653598758438, 3.08593992057127, -12.1050478175080 ) );
#325 = CARTESIAN_POINT( '', ( -6.55547534450221, 3.12861355029466, -11.8459468385943 ) );
#326 = CARTESIAN_POINT( '', ( -6.52836627479593, 3.14173812313585, -11.7149176934946 ) );
#327 = CARTESIAN_POINT( '', ( -6.45744435675870, 3.15796989709348, -11.3175081644224 ) );
#328 = CARTESIAN_POINT( '', ( -6.42438119768925, 3.13725720088359, -11.0457983853584 ) );
#329 = CARTESIAN_POINT( '', ( -6.38563848612226, 3.04360428648928, -10.5166593899529 ) );
#330 = CARTESIAN_POINT( '', ( -6.37923486393287, 2.97045112932683, -10.2545619945717 ) );
#331 = CARTESIAN_POINT( '', ( -6.38228529718423, 2.87514075922311, -10.0000000000000 ) );
#332 = CARTESIAN_POINT( '', ( 2.80000000000000, 0.000000000000000, -32.0000000000000 ) );
#333 = AXIS2_PLACEMENT_3D( '', #342, #343, #344 );
#334 = CARTESIAN_POINT( '', ( 4.00000000000000, 0.000000000000000, -30.8000000000000 ) );
#335 = AXIS2_PLACEMENT_3D( '', #345, #346, #347 );
#336 = CARTESIAN_POINT( '', ( 8.00000000000000, 0.000000000000000, -17.0000000000000 ) );
#337 = AXIS2_PLACEMENT_3D( '', #348, #349, #350 );
#338 = AXIS2_PLACEMENT_3D( '', #351, #352, #353 );
#339 = AXIS2_PLACEMENT_3D( '', #354, #355, #356 );
#340 = CARTESIAN_POINT( '', ( -4.00000000000000, 0.000000000000000, -17.0000000000000 ) );
#341 = AXIS2_PLACEMENT_3D( '', #357, #358, #359 );
#342 = CARTESIAN_POINT( '', ( 0.000000000000000, 0.000000000000000, -32.0000000000000 ) );
#343 = DIRECTION( '', ( 0.000000000000000, 0.000000000000000, 1.00000000000000 ) );
#344 = DIRECTION( '', ( 1.00000000000000, 0.000000000000000, 0.000000000000000 ) );
#345 = CARTESIAN_POINT( '', ( 0.000000000000000, 0.000000000000000, -30.8000000000000 ) );
#346 = DIRECTION( '', ( 0.000000000000000, 0.000000000000000, 1.00000000000000 ) );
#347 = DIRECTION( '', ( 1.00000000000000, 0.000000000000000, 0.000000000000000 ) );
#348 = CARTESIAN_POINT( '', ( 0.000000000000000, 0.000000000000000, -17.0000000000000 ) );
#349 = DIRECTION( '', ( 0.000000000000000, 0.000000000000000, 1.00000000000000 ) );
#350 = DIRECTION( '', ( 1.00000000000000, 0.000000000000000, 0.000000000000000 ) );
#351 = CARTESIAN_POINT( '', ( 0.000000000000000, 0.000000000000000, -10.0000000000000 ) );
#352 = DIRECTION( '', ( 0.000000000000000, 0.000000000000000, 1.00000000000000 ) );
#353 = DIRECTION( '', ( 1.00000000000000, 0.000000000000000, 0.000000000000000 ) );
#354 = CARTESIAN_POINT( '', ( 0.000000000000000, 0.000000000000000, -10.0000000000000 ) );
#355 = DIRECTION( '', ( 0.000000000000000, 0.000000000000000, 1.00000000000000 ) );
#356 = DIRECTION( '', ( 1.00000000000000, 0.000000000000000, 0.000000000000000 ) );
#357 = CARTESIAN_POINT( '', ( 0.000000000000000, 0.000000000000000, -17.0000000000000 ) );
#358 = DIRECTION( '', ( 0.000000000000000, 0.000000000000000, -1.00000000000000 ) );
#359 = DIRECTION( '', ( -1.00000000000000, 0.000000000000000, 0.000000000000000 ) );
ENDSEC;
END-ISO-10303-21;
