ISO-10303-21;
HEADER;
FILE_DESCRIPTION( ( 'Unknown' ), '1' );
FILE_NAME( 'S:/LEAVE 2D&3D CAD/LEAVE 3D-PAR/Metric/PT/PT30-3D/PT30-10.stp', 'Unknown', ( 'Unknown' ), ( 'Unknown' ), 'XStep 1.0', 'Unknown', '  ' );
FILE_SCHEMA( ( 'CONFIG_CONTROL_DESIGN' ) );
ENDSEC;
DATA;
#1 = DESIGN_CONTEXT( '', #27, 'design' );
#2 = APPLICATION_PROTOCOL_DEFINITION( 'INTERNATIONAL STANDARD', 'config_control_design', 1994, #27 );
#3 = PRODUCT_CATEGORY_RELATIONSHIP( 'NONE', 'NONE', #28, #29 );
#4 = DATE_AND_TIME( #30, #31 );
#5 = DATE_TIME_ROLE( 'creation_date' );
#6 = DATE_TIME_ROLE( 'classification_date' );
#7 = PERSON_AND_ORGANIZATION_ROLE( 'creator' );
#8 = PERSON_AND_ORGANIZATION_ROLE( 'design_supplier' );
#9 = PERSON_AND_ORGANIZATION_ROLE( 'classification_officer' );
#10 = PERSON_AND_ORGANIZATION_ROLE( 'design_owner' );
#11 = APPROVAL_PERSON_ORGANIZATION( #32, #33, #34 );
#12 = APPROVAL_DATE_TIME( #4, #33 );
#13 = CC_DESIGN_APPROVAL( #33, ( #35, #36, #37 ) );
#14 = CC_DESIGN_DATE_AND_TIME_ASSIGNMENT( #4, #5, ( #37 ) );
#15 = CC_DESIGN_DATE_AND_TIME_ASSIGNMENT( #4, #6, ( #35 ) );
#16 = CC_DESIGN_PERSON_AND_ORGANIZATION_ASSIGNMENT( #32, #10, ( #38 ) );
#17 = CC_DESIGN_PERSON_AND_ORGANIZATION_ASSIGNMENT( #32, #7, ( #37 ) );
#18 = CC_DESIGN_PERSON_AND_ORGANIZATION_ASSIGNMENT( #32, #7, ( #36 ) );
#19 = CC_DESIGN_PERSON_AND_ORGANIZATION_ASSIGNMENT( #32, #8, ( #36 ) );
#20 = CC_DESIGN_SECURITY_CLASSIFICATION( #35, ( #36 ) );
#21 = CC_DESIGN_PERSON_AND_ORGANIZATION_ASSIGNMENT( #32, #9, ( #35 ) );
#22 = SHAPE_DEFINITION_REPRESENTATION( #39, #40 );
#23 =  ( GEOMETRIC_REPRESENTATION_CONTEXT( 3 )GLOBAL_UNCERTAINTY_ASSIGNED_CONTEXT( ( #43 ) )GLOBAL_UNIT_ASSIGNED_CONTEXT( ( #45, #46, #47 ) )REPRESENTATION_CONTEXT( 'NONE', 'WORKSPACE' ) );
#27 = APPLICATION_CONTEXT( 'CONFIGURATION CONTROLLED 3D DESIGNS OF MECHANICAL PARTS AND ASSEMBLIES' );
#28 = PRODUCT_CATEGORY( 'part', 'NONE' );
#29 = PRODUCT_RELATED_PRODUCT_CATEGORY( 'detail', ' ', ( #38 ) );
#30 = CALENDAR_DATE( 2009, 10, 10 );
#31 = LOCAL_TIME( 15, 44, 50.0000000000000, #49 );
#32 = PERSON_AND_ORGANIZATION( #50, #51 );
#33 = APPROVAL( #52, 'SOLID MODEL' );
#34 = APPROVAL_ROLE( 'APPROVED' );
#35 = SECURITY_CLASSIFICATION( '', '', #53 );
#36 = PRODUCT_DEFINITION_FORMATION_WITH_SPECIFIED_SOURCE( ' ', 'NONE', #38, .NOT_KNOWN. );
#37 = PRODUCT_DEFINITION( 'NONE', 'NONE', #36, #1 );
#38 = PRODUCT( '1', '1', 'PART-1-DESC', ( #54 ) );
#39 = PRODUCT_DEFINITION_SHAPE( 'NONE', 'NONE', #37 );
#40 = ADVANCED_BREP_SHAPE_REPRESENTATION( '1', ( #55, #56 ), #23 );
#43 = UNCERTAINTY_MEASURE_WITH_UNIT( LENGTH_MEASURE( 0.00100000000000000 ), #45, '', '' );
#45 =  ( CONVERSION_BASED_UNIT( 'MILLIMETRE', #59 )LENGTH_UNIT(  )NAMED_UNIT( #62 ) );
#46 =  ( NAMED_UNIT( #64 )PLANE_ANGLE_UNIT(  )SI_UNIT( $, .RADIAN. ) );
#47 =  ( NAMED_UNIT( #64 )SOLID_ANGLE_UNIT(  )SI_UNIT( $, .STERADIAN. ) );
#49 = COORDINATED_UNIVERSAL_TIME_OFFSET( 8, 0, .AHEAD. );
#50 = PERSON( '', 'UNSPECIFIED', $, $, $, $ );
#51 = ORGANIZATION( 'UNSPECIFIED', 'UNSPECIFIED', 'UNSPECIFIED' );
#52 = APPROVAL_STATUS( 'approved' );
#53 = SECURITY_CLASSIFICATION_LEVEL( 'unclassified' );
#54 = MECHANICAL_CONTEXT( '', #27, 'mechanical' );
#55 = MANIFOLD_SOLID_BREP( '1', #70 );
#56 = AXIS2_PLACEMENT_3D( '', #71, #72, #73 );
#59 = LENGTH_MEASURE_WITH_UNIT( LENGTH_MEASURE( 1.00000000000000 ), #74 );
#62 = DIMENSIONAL_EXPONENTS( 1.00000000000000, 0.000000000000000, 0.000000000000000, 0.000000000000000, 0.000000000000000, 0.000000000000000, 0.000000000000000 );
#64 = DIMENSIONAL_EXPONENTS( 0.000000000000000, 0.000000000000000, 0.000000000000000, 0.000000000000000, 0.000000000000000, 0.000000000000000, 0.000000000000000 );
#70 = CLOSED_SHELL( '', ( #75, #76, #77, #78, #79, #80, #81, #82 ) );
#71 = CARTESIAN_POINT( '', ( 0.000000000000000, 0.000000000000000, 0.000000000000000 ) );
#72 = DIRECTION( '', ( 0.000000000000000, 0.000000000000000, 1.00000000000000 ) );
#73 = DIRECTION( '', ( 1.00000000000000, 0.000000000000000, 0.000000000000000 ) );
#74 =  ( NAMED_UNIT( #62 )LENGTH_UNIT(  )SI_UNIT( .MILLI., .METRE. ) );
#75 = ADVANCED_FACE( '', ( #84, #85 ), #86, .T. );
#76 = ADVANCED_FACE( '', ( #87, #88 ), #89, .T. );
#77 = ADVANCED_FACE( '', ( #90, #91 ), #92, .T. );
#78 = ADVANCED_FACE( '', ( #93 ), #94, .T. );
#79 = ADVANCED_FACE( '', ( #95, #96 ), #97, .T. );
#80 = ADVANCED_FACE( '', ( #98, #99 ), #100, .T. );
#81 = ADVANCED_FACE( '', ( #101 ), #102, .F. );
#82 = ADVANCED_FACE( '', ( #103 ), #104, .T. );
#84 = FACE_OUTER_BOUND( '', #105, .T. );
#85 = FACE_OUTER_BOUND( '', #106, .T. );
#86 = TOROIDAL_SURFACE( '', #107, 16.5000000000000, 4.00000000000000 );
#87 = FACE_BOUND( '', #108, .T. );
#88 = FACE_OUTER_BOUND( '', #109, .T. );
#89 = CONICAL_SURFACE( '', #110, 5.00000000000000, 0.785398163397448 );
#90 = FACE_OUTER_BOUND( '', #111, .T. );
#91 = FACE_BOUND( '', #112, .T. );
#92 = CONICAL_SURFACE( '', #113, 8.75000000000000, 0.174672199008239 );
#93 = FACE_OUTER_BOUND( '', #114, .T. );
#94 = PLANE( '', #115 );
#95 = FACE_BOUND( '', #116, .T. );
#96 = FACE_OUTER_BOUND( '', #117, .T. );
#97 = PLANE( '', #118 );
#98 = FACE_OUTER_BOUND( '', #119, .T. );
#99 = FACE_OUTER_BOUND( '', #120, .T. );
#100 = CYLINDRICAL_SURFACE( '', #121, 5.00000000000000 );
#101 = FACE_OUTER_BOUND( '', #122, .T. );
#102 = PLANE( '', #123 );
#103 = FACE_OUTER_BOUND( '', #124, .T. );
#104 = PLANE( '', #125 );
#105 = EDGE_LOOP( '', ( #126, #127, #128 ) );
#106 = EDGE_LOOP( '', ( #129, #130, #131 ) );
#107 = AXIS2_PLACEMENT_3D( '', #132, #133, #134 );
#108 = EDGE_LOOP( '', ( #135 ) );
#109 = EDGE_LOOP( '', ( #136 ) );
#110 = AXIS2_PLACEMENT_3D( '', #137, #138, #139 );
#111 = EDGE_LOOP( '', ( #140 ) );
#112 = EDGE_LOOP( '', ( #141, #142, #143, #144 ) );
#113 = AXIS2_PLACEMENT_3D( '', #145, #146, #147 );
#114 = EDGE_LOOP( '', ( #148, #149, #150 ) );
#115 = AXIS2_PLACEMENT_3D( '', #151, #152, #153 );
#116 = EDGE_LOOP( '', ( #154 ) );
#117 = EDGE_LOOP( '', ( #155 ) );
#118 = AXIS2_PLACEMENT_3D( '', #156, #157, #158 );
#119 = EDGE_LOOP( '', ( #159 ) );
#120 = EDGE_LOOP( '', ( #160 ) );
#121 = AXIS2_PLACEMENT_3D( '', #161, #162, #163 );
#122 = EDGE_LOOP( '', ( #164 ) );
#123 = AXIS2_PLACEMENT_3D( '', #165, #166, #167 );
#124 = EDGE_LOOP( '', ( #168, #169, #170 ) );
#125 = AXIS2_PLACEMENT_3D( '', #171, #172, #173 );
#126 = ORIENTED_EDGE( '', *, *, #174, .F. );
#127 = ORIENTED_EDGE( '', *, *, #175, .F. );
#128 = ORIENTED_EDGE( '', *, *, #176, .F. );
#129 = ORIENTED_EDGE( '', *, *, #177, .F. );
#130 = ORIENTED_EDGE( '', *, *, #178, .F. );
#131 = ORIENTED_EDGE( '', *, *, #179, .F. );
#132 = CARTESIAN_POINT( '', ( 3.46944695195362E-015, 0.000000000000000, 0.000000000000000 ) );
#133 = DIRECTION( '', ( 6.12303176911189E-017, 1.00000000000000, 0.000000000000000 ) );
#134 = DIRECTION( '', ( -1.00000000000000, 6.12303176911189E-017, 0.000000000000000 ) );
#135 = ORIENTED_EDGE( '', *, *, #180, .F. );
#136 = ORIENTED_EDGE( '', *, *, #181, .F. );
#137 = CARTESIAN_POINT( '', ( 0.000000000000000, 0.000000000000000, -37.5000000000000 ) );
#138 = DIRECTION( '', ( -0.000000000000000, -0.000000000000000, 1.00000000000000 ) );
#139 = DIRECTION( '', ( 1.00000000000000, 0.000000000000000, 0.000000000000000 ) );
#140 = ORIENTED_EDGE( '', *, *, #182, .T. );
#141 = ORIENTED_EDGE( '', *, *, #183, .F. );
#142 = ORIENTED_EDGE( '', *, *, #176, .T. );
#143 = ORIENTED_EDGE( '', *, *, #184, .F. );
#144 = ORIENTED_EDGE( '', *, *, #179, .T. );
#145 = CARTESIAN_POINT( '', ( 0.000000000000000, 0.000000000000000, -12.5000000000000 ) );
#146 = DIRECTION( '', ( -0.000000000000000, 0.000000000000000, -1.00000000000000 ) );
#147 = DIRECTION( '', ( -1.00000000000000, 0.000000000000000, 0.000000000000000 ) );
#148 = ORIENTED_EDGE( '', *, *, #178, .T. );
#149 = ORIENTED_EDGE( '', *, *, #174, .T. );
#150 = ORIENTED_EDGE( '', *, *, #183, .T. );
#151 = CARTESIAN_POINT( '', ( 0.000000000000000, 0.000000000000000, -12.5000000000000 ) );
#152 = DIRECTION( '', ( 0.000000000000000, 0.000000000000000, 1.00000000000000 ) );
#153 = DIRECTION( '', ( 1.00000000000000, 0.000000000000000, 0.000000000000000 ) );
#154 = ORIENTED_EDGE( '', *, *, #185, .F. );
#155 = ORIENTED_EDGE( '', *, *, #182, .F. );
#156 = CARTESIAN_POINT( '', ( 10.2500000000000, 0.000000000000000, -21.0000000000000 ) );
#157 = DIRECTION( '', ( 0.000000000000000, 0.000000000000000, -1.00000000000000 ) );
#158 = DIRECTION( '', ( -1.00000000000000, 0.000000000000000, 0.000000000000000 ) );
#159 = ORIENTED_EDGE( '', *, *, #181, .T. );
#160 = ORIENTED_EDGE( '', *, *, #185, .T. );
#161 = CARTESIAN_POINT( '', ( 0.000000000000000, 0.000000000000000, -39.0000000000000 ) );
#162 = DIRECTION( '', ( -0.000000000000000, -0.000000000000000, -1.00000000000000 ) );
#163 = DIRECTION( '', ( 1.00000000000000, 0.000000000000000, 0.000000000000000 ) );
#164 = ORIENTED_EDGE( '', *, *, #180, .T. );
#165 = CARTESIAN_POINT( '', ( 0.000000000000000, 0.000000000000000, -39.0000000000000 ) );
#166 = DIRECTION( '', ( 0.000000000000000, 0.000000000000000, 1.00000000000000 ) );
#167 = DIRECTION( '', ( 1.00000000000000, 0.000000000000000, 0.000000000000000 ) );
#168 = ORIENTED_EDGE( '', *, *, #184, .T. );
#169 = ORIENTED_EDGE( '', *, *, #175, .T. );
#170 = ORIENTED_EDGE( '', *, *, #177, .T. );
#171 = CARTESIAN_POINT( '', ( 0.000000000000000, 0.000000000000000, -12.5000000000000 ) );
#172 = DIRECTION( '', ( 0.000000000000000, 0.000000000000000, 1.00000000000000 ) );
#173 = DIRECTION( '', ( 1.00000000000000, 0.000000000000000, 0.000000000000000 ) );
#174 = EDGE_CURVE( '', #186, #187, #188, .T. );
#175 = EDGE_CURVE( '', #189, #186, #190, .T. );
#176 = EDGE_CURVE( '', #187, #189, #191, .T. );
#177 = EDGE_CURVE( '', #186, #192, #193, .T. );
#178 = EDGE_CURVE( '', #194, #186, #195, .T. );
#179 = EDGE_CURVE( '', #192, #194, #196, .T. );
#180 = EDGE_CURVE( '', #197, #197, #198, .F. );
#181 = EDGE_CURVE( '', #199, #199, #200, .T. );
#182 = EDGE_CURVE( '', #201, #201, #202, .T. );
#183 = EDGE_CURVE( '', #187, #194, #203, .T. );
#184 = EDGE_CURVE( '', #192, #189, #204, .T. );
#185 = EDGE_CURVE( '', #205, #205, #206, .T. );
#186 = VERTEX_POINT( '', #207 );
#187 = VERTEX_POINT( '', #208 );
#188 = B_SPLINE_CURVE_WITH_KNOTS( '', 3, ( #209, #210, #211, #212, #213, #214, #215, #216, #217, #218, #219, #220 ), .UNSPECIFIED., .F., .F., ( 4, 2, 2, 2, 2, 4 ), ( -2.23606797750011E-005, 0.00216617143481121, 0.00435470354939742, 0.00654323566398363, 0.00763750172127674, 0.00873176777856985 ), .UNSPECIFIED. );
#189 = VERTEX_POINT( '', #221 );
#190 = B_SPLINE_CURVE_WITH_KNOTS( '', 3, ( #222, #223, #224, #225, #226, #227, #228, #229, #230, #231, #232, #233 ), .UNSPECIFIED., .F., .F., ( 4, 2, 2, 2, 2, 4 ), ( 0.0292377583154663, 0.0314283387359403, 0.0336189191564143, 0.0358094995768882, 0.0369047897871252, 0.0380000799973622 ), .UNSPECIFIED. );
#191 = B_SPLINE_CURVE_WITH_KNOTS( '', 3, ( #234, #235, #236, #237, #238, #239, #240, #241, #242, #243, #244, #245, #246, #247, #248, #249, #250, #251, #252, #253, #254, #255, #256, #257, #258, #259, #260, #261, #262, #263, #264, #265, #266, #267, #268, #269, #270, #271, #272, #273, #274, #275, #276, #277 ), .UNSPECIFIED., .F., .F., ( 4, 2, 2, 2, 2, 2, 2, 2, 2, 2, 2, 2, 2, 2, 2, 2, 2, 2, 2, 2, 2, 4 ), ( 2.12399135417015E-007, 0.00102403979200557, 0.00204786718487572, 0.00307169457774587, 0.00409552197061603, 0.00460743566705111, 0.00511934936348619, 0.00614317675635635, 0.00665509045279144, 0.00716700414922652, 0.00819083154209668, 0.00870274523853177, 0.00921465893496685, 0.0102384863278370, 0.0107504000242721, 0.0112623137207072, 0.0122861411135774, 0.0133099685064475, 0.0138218822028826, 0.0143337958993177, 0.0153576232921879, 0.0163814506850580 ), .UNSPECIFIED. );
#192 = VERTEX_POINT( '', #278 );
#193 = B_SPLINE_CURVE_WITH_KNOTS( '', 3, ( #279, #280, #281, #282, #283, #284, #285, #286, #287, #288, #289, #290 ), .UNSPECIFIED., .F., .F., ( 4, 2, 2, 2, 2, 4 ), ( -2.23606797750011E-005, 0.00216617143481121, 0.00435470354939742, 0.00654323566398364, 0.00763750172127675, 0.00873176777856985 ), .UNSPECIFIED. );
#194 = VERTEX_POINT( '', #291 );
#195 = B_SPLINE_CURVE_WITH_KNOTS( '', 3, ( #292, #293, #294, #295, #296, #297, #298, #299, #300, #301, #302, #303 ), .UNSPECIFIED., .F., .F., ( 4, 2, 2, 2, 2, 4 ), ( 0.0292377583154663, 0.0314283387359403, 0.0336189191564143, 0.0358094995768882, 0.0369047897871252, 0.0380000799973622 ), .UNSPECIFIED. );
#196 = B_SPLINE_CURVE_WITH_KNOTS( '', 3, ( #304, #305, #306, #307, #308, #309, #310, #311, #312, #313, #314, #315, #316, #317, #318, #319, #320, #321, #322, #323, #324, #325, #326, #327, #328, #329, #330, #331, #332, #333, #334, #335, #336, #337, #338, #339, #340, #341, #342, #343, #344, #345, #346, #347 ), .UNSPECIFIED., .F., .F., ( 4, 2, 2, 2, 2, 2, 2, 2, 2, 2, 2, 2, 2, 2, 2, 2, 2, 2, 2, 2, 2, 4 ), ( 2.12399135417015E-007, 0.00102403979200557, 0.00204786718487572, 0.00307169457774587, 0.00409552197061603, 0.00460743566705111, 0.00511934936348619, 0.00614317675635635, 0.00665509045279143, 0.00716700414922651, 0.00819083154209668, 0.00870274523853176, 0.00921465893496685, 0.0102384863278370, 0.0107504000242721, 0.0112623137207072, 0.0122861411135773, 0.0133099685064475, 0.0138218822028826, 0.0143337958993177, 0.0153576232921879, 0.0163814506850580 ), .UNSPECIFIED. );
#197 = VERTEX_POINT( '', #348 );
#198 = CIRCLE( '', #349, 3.50000000000000 );
#199 = VERTEX_POINT( '', #350 );
#200 = CIRCLE( '', #351, 5.00000000000000 );
#201 = VERTEX_POINT( '', #352 );
#202 = CIRCLE( '', #353, 10.2500000000000 );
#203 = CIRCLE( '', #354, 8.75000000000000 );
#204 = CIRCLE( '', #355, 8.75000000000000 );
#205 = VERTEX_POINT( '', #356 );
#206 = CIRCLE( '', #357, 5.00000000000000 );
#207 = CARTESIAN_POINT( '', ( 3.46944695195362E-015, 0.000000000000000, -12.5000000000000 ) );
#208 = CARTESIAN_POINT( '', ( 7.96144744756194, 3.63013147692874, -12.5000000000257 ) );
#209 = CARTESIAN_POINT( '', ( 3.46944695195362E-015, 0.000000000000000, -12.5000000000000 ) );
#210 = CARTESIAN_POINT( '', ( 0.634957759895235, 0.359185901250571, -12.5000000000000 ) );
#211 = CARTESIAN_POINT( '', ( 1.27324309147703, 0.720273628497018, -12.5000000000000 ) );
#212 = CARTESIAN_POINT( '', ( 2.55628540182446, 1.41997122884935, -12.5000000000000 ) );
#213 = CARTESIAN_POINT( '', ( 3.20266047973598, 1.75955905183802, -12.5000000000000 ) );
#214 = CARTESIAN_POINT( '', ( 4.51539987656385, 2.39647832971348, -12.5000000000000 ) );
#215 = CARTESIAN_POINT( '', ( 5.18170352667092, 2.69393803576984, -12.5000000000000 ) );
#216 = CARTESIAN_POINT( '', ( 6.20504197233881, 3.08964005543871, -12.5000000000000 ) );
#217 = CARTESIAN_POINT( '', ( 6.55015225735165, 3.21309025498484, -12.5000000000000 ) );
#218 = CARTESIAN_POINT( '', ( 7.25024955870304, 3.43911168251229, -12.5000000000000 ) );
#219 = CARTESIAN_POINT( '', ( 7.60549684615509, 3.54164056254100, -12.5000000000000 ) );
#220 = CARTESIAN_POINT( '', ( 7.96144744756326, 3.63013147691906, -12.5000000000000 ) );
#221 = CARTESIAN_POINT( '', ( 7.96144744756157, -3.63013147691861, -12.5000000000000 ) );
#222 = CARTESIAN_POINT( '', ( 7.96144744756157, -3.63013147691862, -12.5000000000000 ) );
#223 = CARTESIAN_POINT( '', ( 7.24482898999867, -3.45197691749634, -12.5000000000000 ) );
#224 = CARTESIAN_POINT( '', ( 6.54999558418087, -3.22280463707299, -12.5000000000000 ) );
#225 = CARTESIAN_POINT( '', ( 5.18912350977985, -2.69702659533663, -12.5000000000000 ) );
#226 = CARTESIAN_POINT( '', ( 4.52323112185912, -2.40007826398457, -12.5000000000000 ) );
#227 = CARTESIAN_POINT( '', ( 3.20979269178543, -1.76321687662796, -12.5000000000000 ) );
#228 = CARTESIAN_POINT( '', ( 2.56229634321867, -1.42318744479165, -12.5000000000000 ) );
#229 = CARTESIAN_POINT( '', ( 1.59781421547737, -0.897306658639509, -12.5000000000000 ) );
#230 = CARTESIAN_POINT( '', ( 1.27740576161492, -0.719334133110602, -12.5000000000000 ) );
#231 = CARTESIAN_POINT( '', ( 0.637965003371105, -0.360888484846943, -12.5000000000000 ) );
#232 = CARTESIAN_POINT( '', ( 0.317776016944928, -0.179761036481632, -12.5000000000000 ) );
#233 = CARTESIAN_POINT( '', ( 3.46944695195362E-015, 0.000000000000000, -12.5000000000000 ) );
#234 = CARTESIAN_POINT( '', ( 7.96144744756194, 3.63013147692875, -12.5000000000257 ) );
#235 = CARTESIAN_POINT( '', ( 7.96605843574053, 3.75671069651403, -12.8213546263081 ) );
#236 = CARTESIAN_POINT( '', ( 7.98336537810538, 3.85319236527104, -13.1488716377819 ) );
#237 = CARTESIAN_POINT( '', ( 8.05274530932518, 3.97977041206566, -13.8169445994921 ) );
#238 = CARTESIAN_POINT( '', ( 8.10612778229128, 4.00899861025484, -14.1615255163484 ) );
#239 = CARTESIAN_POINT( '', ( 8.24808352475564, 3.98597737821400, -14.8269132573262 ) );
#240 = CARTESIAN_POINT( '', ( 8.33666450458877, 3.93535328384759, -15.1515117860252 ) );
#241 = CARTESIAN_POINT( '', ( 8.54637023879286, 3.74388407270050, -15.7839842925584 ) );
#242 = CARTESIAN_POINT( '', ( 8.66189723499108, 3.60794998067664, -16.0755514798850 ) );
#243 = CARTESIAN_POINT( '', ( 8.84145868154634, 3.34421935493423, -16.4792421691075 ) );
#244 = CARTESIAN_POINT( '', ( 8.90278579172931, 3.24540012557785, -16.6089616589732 ) );
#245 = CARTESIAN_POINT( '', ( 9.02264367962067, 3.03228461207102, -16.8508194761688 ) );
#246 = CARTESIAN_POINT( '', ( 9.08141732149304, 2.91776361811013, -16.9636047817461 ) );
#247 = CARTESIAN_POINT( '', ( 9.25194380304284, 2.55066592854194, -17.2791478132267 ) );
#248 = CARTESIAN_POINT( '', ( 9.35876687461584, 2.27095473527815, -17.4605578450779 ) );
#249 = CARTESIAN_POINT( '', ( 9.49095042761292, 1.82484004725671, -17.6768096909586 ) );
#250 = CARTESIAN_POINT( '', ( 9.53069464032179, 1.67114570348393, -17.7401790051354 ) );
#251 = CARTESIAN_POINT( '', ( 9.60049006049959, 1.35366197254009, -17.8498743326848 ) );
#252 = CARTESIAN_POINT( '', ( 9.63068043347027, 1.18866354269440, -17.8964048598196 ) );
#253 = CARTESIAN_POINT( '', ( 9.70313820659041, 0.689998660233873, -18.0071323892021 ) );
#254 = CARTESIAN_POINT( '', ( 9.72814388090612, 0.351353327143887, -18.0441198493045 ) );
#255 = CARTESIAN_POINT( '', ( 9.72860861063777, -0.166027057539103, -18.0448146108334 ) );
#256 = CARTESIAN_POINT( '', ( 9.72245304915429, -0.339133757474115, -18.0356367078846 ) );
#257 = CARTESIAN_POINT( '', ( 9.69821794352144, -0.678727829010563, -17.9992128785458 ) );
#258 = CARTESIAN_POINT( '', ( 9.68015081697497, -0.846372557523140, -17.9719863469539 ) );
#259 = CARTESIAN_POINT( '', ( 9.60877969526132, -1.34287511226814, -17.8629702316672 ) );
#260 = CARTESIAN_POINT( '', ( 9.53721960652764, -1.66708725319554, -17.7523703236078 ) );
#261 = CARTESIAN_POINT( '', ( 9.40569176450523, -2.11334744149695, -17.5373915766691 ) );
#262 = CARTESIAN_POINT( '', ( 9.35768944463728, -2.25657898086126, -17.4573078734962 ) );
#263 = CARTESIAN_POINT( '', ( 9.25444057800721, -2.53182827951603, -17.2793087041575 ) );
#264 = CARTESIAN_POINT( '', ( 9.19889634728154, -2.66431808765215, -17.1808056887816 ) );
#265 = CARTESIAN_POINT( '', ( 9.02813907709125, -3.03349525574752, -16.8653668044197 ) );
#266 = CARTESIAN_POINT( '', ( 8.90753182832468, -3.24616976788190, -16.6268553079294 ) );
#267 = CARTESIAN_POINT( '', ( 8.66586245937320, -3.60308935495253, -16.0853602999145 ) );
#268 = CARTESIAN_POINT( '', ( 8.54987362848935, -3.73982279869005, -15.7929667031546 ) );
#269 = CARTESIAN_POINT( '', ( 8.39384306768410, -3.88355193598785, -15.3247056282680 ) );
#270 = CARTESIAN_POINT( '', ( 8.34438025533888, -3.92142046432308, -15.1620822575132 ) );
#271 = CARTESIAN_POINT( '', ( 8.25473373578441, -3.97509510928879, -14.8340094397997 ) );
#272 = CARTESIAN_POINT( '', ( 8.21440123264019, -3.99117470838845, -14.6683869095499 ) );
#273 = CARTESIAN_POINT( '', ( 8.10699716437346, -4.00937132643964, -14.1668561245395 ) );
#274 = CARTESIAN_POINT( '', ( 8.05350404303435, -3.98054778024230, -13.8227563345158 ) );
#275 = CARTESIAN_POINT( '', ( 7.98356257556530, -3.85415076020311, -13.1522444252978 ) );
#276 = CARTESIAN_POINT( '', ( 7.96606448997976, -3.75687689537214, -12.8217765657981 ) );
#277 = CARTESIAN_POINT( '', ( 7.96144744756157, -3.63013147691862, -12.5000000000000 ) );
#278 = CARTESIAN_POINT( '', ( -7.96144744756194, -3.63013147692874, -12.5000000000257 ) );
#279 = CARTESIAN_POINT( '', ( 3.46944695195362E-015, 0.000000000000000, -12.5000000000000 ) );
#280 = CARTESIAN_POINT( '', ( -0.634957759895228, -0.359185901250571, -12.5000000000000 ) );
#281 = CARTESIAN_POINT( '', ( -1.27324309147702, -0.720273628497018, -12.5000000000000 ) );
#282 = CARTESIAN_POINT( '', ( -2.55628540182446, -1.41997122884935, -12.5000000000000 ) );
#283 = CARTESIAN_POINT( '', ( -3.20266047973597, -1.75955905183802, -12.5000000000000 ) );
#284 = CARTESIAN_POINT( '', ( -4.51539987656385, -2.39647832971348, -12.5000000000000 ) );
#285 = CARTESIAN_POINT( '', ( -5.18170352667092, -2.69393803576984, -12.5000000000000 ) );
#286 = CARTESIAN_POINT( '', ( -6.20504197233881, -3.08964005543871, -12.5000000000000 ) );
#287 = CARTESIAN_POINT( '', ( -6.55015225735165, -3.21309025498484, -12.5000000000000 ) );
#288 = CARTESIAN_POINT( '', ( -7.25024955870305, -3.43911168251229, -12.5000000000000 ) );
#289 = CARTESIAN_POINT( '', ( -7.60549684615509, -3.54164056254101, -12.5000000000000 ) );
#290 = CARTESIAN_POINT( '', ( -7.96144744756325, -3.63013147691906, -12.5000000000000 ) );
#291 = CARTESIAN_POINT( '', ( -7.96144744756157, 3.63013147691862, -12.5000000000000 ) );
#292 = CARTESIAN_POINT( '', ( -7.96144744756157, 3.63013147691862, -12.5000000000000 ) );
#293 = CARTESIAN_POINT( '', ( -7.24482898999867, 3.45197691749634, -12.5000000000000 ) );
#294 = CARTESIAN_POINT( '', ( -6.54999558418087, 3.22280463707299, -12.5000000000000 ) );
#295 = CARTESIAN_POINT( '', ( -5.18912350977985, 2.69702659533663, -12.5000000000000 ) );
#296 = CARTESIAN_POINT( '', ( -4.52323112185912, 2.40007826398457, -12.5000000000000 ) );
#297 = CARTESIAN_POINT( '', ( -3.20979269178543, 1.76321687662796, -12.5000000000000 ) );
#298 = CARTESIAN_POINT( '', ( -2.56229634321866, 1.42318744479166, -12.5000000000000 ) );
#299 = CARTESIAN_POINT( '', ( -1.59781421547736, 0.897306658639508, -12.5000000000000 ) );
#300 = CARTESIAN_POINT( '', ( -1.27740576161492, 0.719334133110605, -12.5000000000000 ) );
#301 = CARTESIAN_POINT( '', ( -0.637965003371102, 0.360888484846946, -12.5000000000000 ) );
#302 = CARTESIAN_POINT( '', ( -0.317776016944922, 0.179761036481633, -12.5000000000000 ) );
#303 = CARTESIAN_POINT( '', ( 3.46944695195362E-015, 0.000000000000000, -12.5000000000000 ) );
#304 = CARTESIAN_POINT( '', ( -7.96144744756194, -3.63013147692875, -12.5000000000257 ) );
#305 = CARTESIAN_POINT( '', ( -7.96605843574053, -3.75671069651404, -12.8213546263080 ) );
#306 = CARTESIAN_POINT( '', ( -7.98336537810538, -3.85319236527104, -13.1488716377819 ) );
#307 = CARTESIAN_POINT( '', ( -8.05274530932518, -3.97977041206566, -13.8169445994921 ) );
#308 = CARTESIAN_POINT( '', ( -8.10612778229128, -4.00899861025485, -14.1615255163484 ) );
#309 = CARTESIAN_POINT( '', ( -8.24808352475564, -3.98597737821400, -14.8269132573262 ) );
#310 = CARTESIAN_POINT( '', ( -8.33666450458877, -3.93535328384759, -15.1515117860252 ) );
#311 = CARTESIAN_POINT( '', ( -8.54637023879286, -3.74388407270050, -15.7839842925584 ) );
#312 = CARTESIAN_POINT( '', ( -8.66189723499109, -3.60794998067664, -16.0755514798850 ) );
#313 = CARTESIAN_POINT( '', ( -8.84145868154634, -3.34421935493423, -16.4792421691075 ) );
#314 = CARTESIAN_POINT( '', ( -8.90278579172931, -3.24540012557784, -16.6089616589732 ) );
#315 = CARTESIAN_POINT( '', ( -9.02264367962068, -3.03228461207101, -16.8508194761688 ) );
#316 = CARTESIAN_POINT( '', ( -9.08141732149305, -2.91776361811013, -16.9636047817461 ) );
#317 = CARTESIAN_POINT( '', ( -9.25194380304284, -2.55066592854194, -17.2791478132268 ) );
#318 = CARTESIAN_POINT( '', ( -9.35876687461584, -2.27095473527815, -17.4605578450779 ) );
#319 = CARTESIAN_POINT( '', ( -9.49095042761291, -1.82484004725671, -17.6768096909586 ) );
#320 = CARTESIAN_POINT( '', ( -9.53069464032179, -1.67114570348393, -17.7401790051354 ) );
#321 = CARTESIAN_POINT( '', ( -9.60049006049958, -1.35366197254009, -17.8498743326848 ) );
#322 = CARTESIAN_POINT( '', ( -9.63068043347027, -1.18866354269440, -17.8964048598196 ) );
#323 = CARTESIAN_POINT( '', ( -9.70313820659042, -0.689998660233870, -18.0071323892021 ) );
#324 = CARTESIAN_POINT( '', ( -9.72814388090612, -0.351353327143885, -18.0441198493045 ) );
#325 = CARTESIAN_POINT( '', ( -9.72860861063778, 0.166027057539106, -18.0448146108334 ) );
#326 = CARTESIAN_POINT( '', ( -9.72245304915429, 0.339133757474118, -18.0356367078846 ) );
#327 = CARTESIAN_POINT( '', ( -9.69821794352144, 0.678727829010566, -17.9992128785457 ) );
#328 = CARTESIAN_POINT( '', ( -9.68015081697497, 0.846372557523141, -17.9719863469539 ) );
#329 = CARTESIAN_POINT( '', ( -9.60877969526132, 1.34287511226814, -17.8629702316672 ) );
#330 = CARTESIAN_POINT( '', ( -9.53721960652764, 1.66708725319554, -17.7523703236078 ) );
#331 = CARTESIAN_POINT( '', ( -9.40569176450522, 2.11334744149695, -17.5373915766691 ) );
#332 = CARTESIAN_POINT( '', ( -9.35768944463727, 2.25657898086126, -17.4573078734962 ) );
#333 = CARTESIAN_POINT( '', ( -9.25444057800721, 2.53182827951603, -17.2793087041575 ) );
#334 = CARTESIAN_POINT( '', ( -9.19889634728153, 2.66431808765215, -17.1808056887816 ) );
#335 = CARTESIAN_POINT( '', ( -9.02813907709125, 3.03349525574752, -16.8653668044197 ) );
#336 = CARTESIAN_POINT( '', ( -8.90753182832468, 3.24616976788190, -16.6268553079294 ) );
#337 = CARTESIAN_POINT( '', ( -8.66586245937319, 3.60308935495253, -16.0853602999145 ) );
#338 = CARTESIAN_POINT( '', ( -8.54987362848935, 3.73982279869005, -15.7929667031546 ) );
#339 = CARTESIAN_POINT( '', ( -8.39384306768410, 3.88355193598785, -15.3247056282680 ) );
#340 = CARTESIAN_POINT( '', ( -8.34438025533889, 3.92142046432308, -15.1620822575132 ) );
#341 = CARTESIAN_POINT( '', ( -8.25473373578441, 3.97509510928879, -14.8340094397997 ) );
#342 = CARTESIAN_POINT( '', ( -8.21440123264019, 3.99117470838845, -14.6683869095499 ) );
#343 = CARTESIAN_POINT( '', ( -8.10699716437347, 4.00937132643964, -14.1668561245395 ) );
#344 = CARTESIAN_POINT( '', ( -8.05350404303434, 3.98054778024231, -13.8227563345158 ) );
#345 = CARTESIAN_POINT( '', ( -7.98356257556530, 3.85415076020310, -13.1522444252978 ) );
#346 = CARTESIAN_POINT( '', ( -7.96606448997975, 3.75687689537214, -12.8217765657981 ) );
#347 = CARTESIAN_POINT( '', ( -7.96144744756157, 3.63013147691862, -12.5000000000000 ) );
#348 = CARTESIAN_POINT( '', ( 3.50000000000000, 0.000000000000000, -39.0000000000000 ) );
#349 = AXIS2_PLACEMENT_3D( '', #358, #359, #360 );
#350 = CARTESIAN_POINT( '', ( 5.00000000000000, 0.000000000000000, -37.5000000000000 ) );
#351 = AXIS2_PLACEMENT_3D( '', #361, #362, #363 );
#352 = CARTESIAN_POINT( '', ( 10.2500000000000, 0.000000000000000, -21.0000000000000 ) );
#353 = AXIS2_PLACEMENT_3D( '', #364, #365, #366 );
#354 = AXIS2_PLACEMENT_3D( '', #367, #368, #369 );
#355 = AXIS2_PLACEMENT_3D( '', #370, #371, #372 );
#356 = CARTESIAN_POINT( '', ( -5.00000000000000, 0.000000000000000, -21.0000000000000 ) );
#357 = AXIS2_PLACEMENT_3D( '', #373, #374, #375 );
#358 = CARTESIAN_POINT( '', ( 0.000000000000000, 0.000000000000000, -39.0000000000000 ) );
#359 = DIRECTION( '', ( 0.000000000000000, 0.000000000000000, 1.00000000000000 ) );
#360 = DIRECTION( '', ( 1.00000000000000, 0.000000000000000, 0.000000000000000 ) );
#361 = CARTESIAN_POINT( '', ( 0.000000000000000, 0.000000000000000, -37.5000000000000 ) );
#362 = DIRECTION( '', ( 0.000000000000000, 0.000000000000000, 1.00000000000000 ) );
#363 = DIRECTION( '', ( 1.00000000000000, 0.000000000000000, 0.000000000000000 ) );
#364 = CARTESIAN_POINT( '', ( 0.000000000000000, 0.000000000000000, -21.0000000000000 ) );
#365 = DIRECTION( '', ( 0.000000000000000, 0.000000000000000, 1.00000000000000 ) );
#366 = DIRECTION( '', ( 1.00000000000000, 0.000000000000000, 0.000000000000000 ) );
#367 = CARTESIAN_POINT( '', ( 0.000000000000000, 0.000000000000000, -12.5000000000000 ) );
#368 = DIRECTION( '', ( 0.000000000000000, 0.000000000000000, 1.00000000000000 ) );
#369 = DIRECTION( '', ( 1.00000000000000, 0.000000000000000, 0.000000000000000 ) );
#370 = CARTESIAN_POINT( '', ( 0.000000000000000, 0.000000000000000, -12.5000000000000 ) );
#371 = DIRECTION( '', ( 0.000000000000000, 0.000000000000000, 1.00000000000000 ) );
#372 = DIRECTION( '', ( 1.00000000000000, 0.000000000000000, 0.000000000000000 ) );
#373 = CARTESIAN_POINT( '', ( 0.000000000000000, 0.000000000000000, -21.0000000000000 ) );
#374 = DIRECTION( '', ( 0.000000000000000, 0.000000000000000, -1.00000000000000 ) );
#375 = DIRECTION( '', ( -1.00000000000000, 0.000000000000000, 0.000000000000000 ) );
ENDSEC;
END-ISO-10303-21;
