ISO-10303-21;
HEADER;
FILE_DESCRIPTION( ( 'Unknown' ), '1' );
FILE_NAME( 'S:/LEAVE 2D&3D CAD/LEAVE 3D-PAR/Metric/PT/PT30-3D/PT30-12.stp', 'Unknown', ( 'Unknown' ), ( 'Unknown' ), 'XStep 1.0', 'Unknown', '  ' );
FILE_SCHEMA( ( 'CONFIG_CONTROL_DESIGN' ) );
ENDSEC;
DATA;
#1 = DESIGN_CONTEXT( '', #27, 'design' );
#2 = APPLICATION_PROTOCOL_DEFINITION( 'INTERNATIONAL STANDARD', 'config_control_design', 1994, #27 );
#3 = PRODUCT_CATEGORY_RELATIONSHIP( 'NONE', 'NONE', #28, #29 );
#4 = DATE_AND_TIME( #30, #31 );
#5 = DATE_TIME_ROLE( 'creation_date' );
#6 = DATE_TIME_ROLE( 'classification_date' );
#7 = PERSON_AND_ORGANIZATION_ROLE( 'creator' );
#8 = PERSON_AND_ORGANIZATION_ROLE( 'design_supplier' );
#9 = PERSON_AND_ORGANIZATION_ROLE( 'classification_officer' );
#10 = PERSON_AND_ORGANIZATION_ROLE( 'design_owner' );
#11 = APPROVAL_PERSON_ORGANIZATION( #32, #33, #34 );
#12 = APPROVAL_DATE_TIME( #4, #33 );
#13 = CC_DESIGN_APPROVAL( #33, ( #35, #36, #37 ) );
#14 = CC_DESIGN_DATE_AND_TIME_ASSIGNMENT( #4, #5, ( #37 ) );
#15 = CC_DESIGN_DATE_AND_TIME_ASSIGNMENT( #4, #6, ( #35 ) );
#16 = CC_DESIGN_PERSON_AND_ORGANIZATION_ASSIGNMENT( #32, #10, ( #38 ) );
#17 = CC_DESIGN_PERSON_AND_ORGANIZATION_ASSIGNMENT( #32, #7, ( #37 ) );
#18 = CC_DESIGN_PERSON_AND_ORGANIZATION_ASSIGNMENT( #32, #7, ( #36 ) );
#19 = CC_DESIGN_PERSON_AND_ORGANIZATION_ASSIGNMENT( #32, #8, ( #36 ) );
#20 = CC_DESIGN_SECURITY_CLASSIFICATION( #35, ( #36 ) );
#21 = CC_DESIGN_PERSON_AND_ORGANIZATION_ASSIGNMENT( #32, #9, ( #35 ) );
#22 = SHAPE_DEFINITION_REPRESENTATION( #39, #40 );
#23 =  ( GEOMETRIC_REPRESENTATION_CONTEXT( 3 )GLOBAL_UNCERTAINTY_ASSIGNED_CONTEXT( ( #43 ) )GLOBAL_UNIT_ASSIGNED_CONTEXT( ( #45, #46, #47 ) )REPRESENTATION_CONTEXT( 'NONE', 'WORKSPACE' ) );
#27 = APPLICATION_CONTEXT( 'CONFIGURATION CONTROLLED 3D DESIGNS OF MECHANICAL PARTS AND ASSEMBLIES' );
#28 = PRODUCT_CATEGORY( 'part', 'NONE' );
#29 = PRODUCT_RELATED_PRODUCT_CATEGORY( 'detail', ' ', ( #38 ) );
#30 = CALENDAR_DATE( 2009, 10, 10 );
#31 = LOCAL_TIME( 15, 44, 59.0000000000000, #49 );
#32 = PERSON_AND_ORGANIZATION( #50, #51 );
#33 = APPROVAL( #52, 'SOLID MODEL' );
#34 = APPROVAL_ROLE( 'APPROVED' );
#35 = SECURITY_CLASSIFICATION( '', '', #53 );
#36 = PRODUCT_DEFINITION_FORMATION_WITH_SPECIFIED_SOURCE( ' ', 'NONE', #38, .NOT_KNOWN. );
#37 = PRODUCT_DEFINITION( 'NONE', 'NONE', #36, #1 );
#38 = PRODUCT( '1', '1', 'PART-1-DESC', ( #54 ) );
#39 = PRODUCT_DEFINITION_SHAPE( 'NONE', 'NONE', #37 );
#40 = ADVANCED_BREP_SHAPE_REPRESENTATION( '1', ( #55, #56 ), #23 );
#43 = UNCERTAINTY_MEASURE_WITH_UNIT( LENGTH_MEASURE( 0.00100000000000000 ), #45, '', '' );
#45 =  ( CONVERSION_BASED_UNIT( 'MILLIMETRE', #59 )LENGTH_UNIT(  )NAMED_UNIT( #62 ) );
#46 =  ( NAMED_UNIT( #64 )PLANE_ANGLE_UNIT(  )SI_UNIT( $, .RADIAN. ) );
#47 =  ( NAMED_UNIT( #64 )SOLID_ANGLE_UNIT(  )SI_UNIT( $, .STERADIAN. ) );
#49 = COORDINATED_UNIVERSAL_TIME_OFFSET( 8, 0, .AHEAD. );
#50 = PERSON( '', 'UNSPECIFIED', $, $, $, $ );
#51 = ORGANIZATION( 'UNSPECIFIED', 'UNSPECIFIED', 'UNSPECIFIED' );
#52 = APPROVAL_STATUS( 'approved' );
#53 = SECURITY_CLASSIFICATION_LEVEL( 'unclassified' );
#54 = MECHANICAL_CONTEXT( '', #27, 'mechanical' );
#55 = MANIFOLD_SOLID_BREP( '1', #70 );
#56 = AXIS2_PLACEMENT_3D( '', #71, #72, #73 );
#59 = LENGTH_MEASURE_WITH_UNIT( LENGTH_MEASURE( 1.00000000000000 ), #74 );
#62 = DIMENSIONAL_EXPONENTS( 1.00000000000000, 0.000000000000000, 0.000000000000000, 0.000000000000000, 0.000000000000000, 0.000000000000000, 0.000000000000000 );
#64 = DIMENSIONAL_EXPONENTS( 0.000000000000000, 0.000000000000000, 0.000000000000000, 0.000000000000000, 0.000000000000000, 0.000000000000000, 0.000000000000000 );
#70 = CLOSED_SHELL( '', ( #75, #76, #77, #78, #79, #80, #81, #82 ) );
#71 = CARTESIAN_POINT( '', ( 0.000000000000000, 0.000000000000000, 0.000000000000000 ) );
#72 = DIRECTION( '', ( 0.000000000000000, 0.000000000000000, 1.00000000000000 ) );
#73 = DIRECTION( '', ( 1.00000000000000, 0.000000000000000, 0.000000000000000 ) );
#74 =  ( NAMED_UNIT( #62 )LENGTH_UNIT(  )SI_UNIT( .MILLI., .METRE. ) );
#75 = ADVANCED_FACE( '', ( #84, #85 ), #86, .T. );
#76 = ADVANCED_FACE( '', ( #87, #88 ), #89, .T. );
#77 = ADVANCED_FACE( '', ( #90, #91 ), #92, .T. );
#78 = ADVANCED_FACE( '', ( #93 ), #94, .T. );
#79 = ADVANCED_FACE( '', ( #95, #96 ), #97, .T. );
#80 = ADVANCED_FACE( '', ( #98, #99 ), #100, .T. );
#81 = ADVANCED_FACE( '', ( #101 ), #102, .F. );
#82 = ADVANCED_FACE( '', ( #103 ), #104, .T. );
#84 = FACE_OUTER_BOUND( '', #105, .T. );
#85 = FACE_OUTER_BOUND( '', #106, .T. );
#86 = TOROIDAL_SURFACE( '', #107, 20.0000000000000, 5.00000000000000 );
#87 = FACE_BOUND( '', #108, .T. );
#88 = FACE_OUTER_BOUND( '', #109, .T. );
#89 = CONICAL_SURFACE( '', #110, 6.00000000000000, 0.785398163397448 );
#90 = FACE_OUTER_BOUND( '', #111, .T. );
#91 = FACE_BOUND( '', #112, .T. );
#92 = CONICAL_SURFACE( '', #113, 11.5000000000000, 0.135527713985501 );
#93 = FACE_OUTER_BOUND( '', #114, .T. );
#94 = PLANE( '', #115 );
#95 = FACE_BOUND( '', #116, .T. );
#96 = FACE_OUTER_BOUND( '', #117, .T. );
#97 = PLANE( '', #118 );
#98 = FACE_OUTER_BOUND( '', #119, .T. );
#99 = FACE_OUTER_BOUND( '', #120, .T. );
#100 = CYLINDRICAL_SURFACE( '', #121, 6.00000000000000 );
#101 = FACE_OUTER_BOUND( '', #122, .T. );
#102 = PLANE( '', #123 );
#103 = FACE_OUTER_BOUND( '', #124, .T. );
#104 = PLANE( '', #125 );
#105 = EDGE_LOOP( '', ( #126, #127, #128 ) );
#106 = EDGE_LOOP( '', ( #129, #130, #131 ) );
#107 = AXIS2_PLACEMENT_3D( '', #132, #133, #134 );
#108 = EDGE_LOOP( '', ( #135 ) );
#109 = EDGE_LOOP( '', ( #136 ) );
#110 = AXIS2_PLACEMENT_3D( '', #137, #138, #139 );
#111 = EDGE_LOOP( '', ( #140 ) );
#112 = EDGE_LOOP( '', ( #141, #142, #143, #144 ) );
#113 = AXIS2_PLACEMENT_3D( '', #145, #146, #147 );
#114 = EDGE_LOOP( '', ( #148, #149, #150 ) );
#115 = AXIS2_PLACEMENT_3D( '', #151, #152, #153 );
#116 = EDGE_LOOP( '', ( #154 ) );
#117 = EDGE_LOOP( '', ( #155 ) );
#118 = AXIS2_PLACEMENT_3D( '', #156, #157, #158 );
#119 = EDGE_LOOP( '', ( #159 ) );
#120 = EDGE_LOOP( '', ( #160 ) );
#121 = AXIS2_PLACEMENT_3D( '', #161, #162, #163 );
#122 = EDGE_LOOP( '', ( #164 ) );
#123 = AXIS2_PLACEMENT_3D( '', #165, #166, #167 );
#124 = EDGE_LOOP( '', ( #168, #169, #170 ) );
#125 = AXIS2_PLACEMENT_3D( '', #171, #172, #173 );
#126 = ORIENTED_EDGE( '', *, *, #174, .F. );
#127 = ORIENTED_EDGE( '', *, *, #175, .F. );
#128 = ORIENTED_EDGE( '', *, *, #176, .F. );
#129 = ORIENTED_EDGE( '', *, *, #177, .F. );
#130 = ORIENTED_EDGE( '', *, *, #178, .F. );
#131 = ORIENTED_EDGE( '', *, *, #179, .F. );
#132 = CARTESIAN_POINT( '', ( 3.46944695195362E-015, 0.000000000000000, 0.000000000000000 ) );
#133 = DIRECTION( '', ( 6.12303176911189E-017, 1.00000000000000, 0.000000000000000 ) );
#134 = DIRECTION( '', ( -1.00000000000000, 6.12303176911189E-017, 0.000000000000000 ) );
#135 = ORIENTED_EDGE( '', *, *, #180, .F. );
#136 = ORIENTED_EDGE( '', *, *, #181, .F. );
#137 = CARTESIAN_POINT( '', ( 0.000000000000000, 0.000000000000000, -45.0000000000000 ) );
#138 = DIRECTION( '', ( -0.000000000000000, -0.000000000000000, 1.00000000000000 ) );
#139 = DIRECTION( '', ( 1.00000000000000, 0.000000000000000, 0.000000000000000 ) );
#140 = ORIENTED_EDGE( '', *, *, #182, .T. );
#141 = ORIENTED_EDGE( '', *, *, #183, .F. );
#142 = ORIENTED_EDGE( '', *, *, #176, .T. );
#143 = ORIENTED_EDGE( '', *, *, #184, .F. );
#144 = ORIENTED_EDGE( '', *, *, #179, .T. );
#145 = CARTESIAN_POINT( '', ( 0.000000000000000, 0.000000000000000, -15.0000000000000 ) );
#146 = DIRECTION( '', ( -0.000000000000000, 0.000000000000000, -1.00000000000000 ) );
#147 = DIRECTION( '', ( -1.00000000000000, 0.000000000000000, 0.000000000000000 ) );
#148 = ORIENTED_EDGE( '', *, *, #178, .T. );
#149 = ORIENTED_EDGE( '', *, *, #174, .T. );
#150 = ORIENTED_EDGE( '', *, *, #183, .T. );
#151 = CARTESIAN_POINT( '', ( 0.000000000000000, 0.000000000000000, -15.0000000000000 ) );
#152 = DIRECTION( '', ( 0.000000000000000, 0.000000000000000, 1.00000000000000 ) );
#153 = DIRECTION( '', ( 1.00000000000000, 0.000000000000000, 0.000000000000000 ) );
#154 = ORIENTED_EDGE( '', *, *, #185, .F. );
#155 = ORIENTED_EDGE( '', *, *, #182, .F. );
#156 = CARTESIAN_POINT( '', ( 13.0000000000000, 0.000000000000000, -26.0000000000000 ) );
#157 = DIRECTION( '', ( 0.000000000000000, 0.000000000000000, -1.00000000000000 ) );
#158 = DIRECTION( '', ( -1.00000000000000, 0.000000000000000, 0.000000000000000 ) );
#159 = ORIENTED_EDGE( '', *, *, #181, .T. );
#160 = ORIENTED_EDGE( '', *, *, #185, .T. );
#161 = CARTESIAN_POINT( '', ( 0.000000000000000, 0.000000000000000, -47.0000000000000 ) );
#162 = DIRECTION( '', ( -0.000000000000000, -0.000000000000000, -1.00000000000000 ) );
#163 = DIRECTION( '', ( 1.00000000000000, 0.000000000000000, 0.000000000000000 ) );
#164 = ORIENTED_EDGE( '', *, *, #180, .T. );
#165 = CARTESIAN_POINT( '', ( 0.000000000000000, 0.000000000000000, -47.0000000000000 ) );
#166 = DIRECTION( '', ( 0.000000000000000, 0.000000000000000, 1.00000000000000 ) );
#167 = DIRECTION( '', ( 1.00000000000000, 0.000000000000000, 0.000000000000000 ) );
#168 = ORIENTED_EDGE( '', *, *, #184, .T. );
#169 = ORIENTED_EDGE( '', *, *, #175, .T. );
#170 = ORIENTED_EDGE( '', *, *, #177, .T. );
#171 = CARTESIAN_POINT( '', ( 0.000000000000000, 0.000000000000000, -15.0000000000000 ) );
#172 = DIRECTION( '', ( 0.000000000000000, 0.000000000000000, 1.00000000000000 ) );
#173 = DIRECTION( '', ( 1.00000000000000, 0.000000000000000, 0.000000000000000 ) );
#174 = EDGE_CURVE( '', #186, #187, #188, .T. );
#175 = EDGE_CURVE( '', #189, #186, #190, .T. );
#176 = EDGE_CURVE( '', #187, #189, #191, .T. );
#177 = EDGE_CURVE( '', #186, #192, #193, .T. );
#178 = EDGE_CURVE( '', #194, #186, #195, .T. );
#179 = EDGE_CURVE( '', #192, #194, #196, .T. );
#180 = EDGE_CURVE( '', #197, #197, #198, .F. );
#181 = EDGE_CURVE( '', #199, #199, #200, .T. );
#182 = EDGE_CURVE( '', #201, #201, #202, .T. );
#183 = EDGE_CURVE( '', #187, #194, #203, .T. );
#184 = EDGE_CURVE( '', #192, #189, #204, .T. );
#185 = EDGE_CURVE( '', #205, #205, #206, .T. );
#186 = VERTEX_POINT( '', #207 );
#187 = VERTEX_POINT( '', #208 );
#188 = B_SPLINE_CURVE_WITH_KNOTS( '', 3, ( #209, #210, #211, #212, #213, #214, #215, #216, #217, #218, #219, #220 ), .UNSPECIFIED., .F., .F., ( 4, 2, 2, 2, 2, 4 ), ( -2.44948974278341E-005, 0.00141493069330625, 0.00285435628404034, 0.00573320746550852, 0.00861205864697669, 0.0114909098284449 ), .UNSPECIFIED. );
#189 = VERTEX_POINT( '', #221 );
#190 = B_SPLINE_CURVE_WITH_KNOTS( '', 3, ( #222, #223, #224, #225, #226, #227, #228, #229, #230, #231, #232, #233, #234, #235, #236, #237 ), .UNSPECIFIED., .F., .F., ( 4, 2, 2, 2, 2, 2, 2, 4 ), ( 0.0353890761375722, 0.0368272364882365, 0.0382653968389007, 0.0411417175402291, 0.0440180382415576, 0.0454561985922218, 0.0461752787675539, 0.0468943589428861 ), .UNSPECIFIED. );
#191 = B_SPLINE_CURVE_WITH_KNOTS( '', 3, ( #238, #239, #240, #241, #242, #243, #244, #245, #246, #247, #248, #249, #250, #251, #252, #253, #254, #255, #256, #257, #258, #259, #260, #261, #262, #263, #264, #265, #266, #267, #268, #269, #270, #271, #272, #273, #274, #275, #276, #277, #278, #279, #280, #281, #282, #283 ), .UNSPECIFIED., .F., .F., ( 4, 2, 2, 2, 2, 2, 2, 2, 2, 2, 2, 2, 2, 2, 2, 2, 2, 2, 2, 2, 2, 2, 4 ), ( 2.06250601774281E-007, 0.00123498032577913, 0.00185236736336781, 0.00246975440095649, 0.00370452847613384, 0.00493930255131120, 0.00555668958889988, 0.00617407662648855, 0.00740885070166590, 0.00864362477684326, 0.00987839885202061, 0.0104957858896093, 0.0111131729271980, 0.0117305599647866, 0.0123479470023753, 0.0135827210775527, 0.0148174951527300, 0.0154348821903187, 0.0160522692279074, 0.0166696562654961, 0.0172870433030847, 0.0185218173782621, 0.0197565914534394 ), .UNSPECIFIED. );
#192 = VERTEX_POINT( '', #284 );
#193 = B_SPLINE_CURVE_WITH_KNOTS( '', 3, ( #285, #286, #287, #288, #289, #290, #291, #292, #293, #294, #295, #296 ), .UNSPECIFIED., .F., .F., ( 4, 2, 2, 2, 2, 4 ), ( -2.44948974278341E-005, 0.00141493069330625, 0.00285435628404034, 0.00573320746550852, 0.00861205864697670, 0.0114909098284449 ), .UNSPECIFIED. );
#194 = VERTEX_POINT( '', #297 );
#195 = B_SPLINE_CURVE_WITH_KNOTS( '', 3, ( #298, #299, #300, #301, #302, #303, #304, #305, #306, #307, #308, #309, #310, #311, #312, #313 ), .UNSPECIFIED., .F., .F., ( 4, 2, 2, 2, 2, 2, 2, 4 ), ( 0.0353890761375722, 0.0368272364882365, 0.0382653968389007, 0.0411417175402291, 0.0440180382415576, 0.0454561985922218, 0.0461752787675539, 0.0468943589428861 ), .UNSPECIFIED. );
#196 = B_SPLINE_CURVE_WITH_KNOTS( '', 3, ( #314, #315, #316, #317, #318, #319, #320, #321, #322, #323, #324, #325, #326, #327, #328, #329, #330, #331, #332, #333, #334, #335, #336, #337, #338, #339, #340, #341, #342, #343, #344, #345, #346, #347, #348, #349, #350, #351, #352, #353, #354, #355, #356, #357, #358, #359 ), .UNSPECIFIED., .F., .F., ( 4, 2, 2, 2, 2, 2, 2, 2, 2, 2, 2, 2, 2, 2, 2, 2, 2, 2, 2, 2, 2, 2, 4 ), ( 2.06250601774281E-007, 0.00123498032577912, 0.00185236736336779, 0.00246975440095647, 0.00370452847613382, 0.00493930255131118, 0.00555668958889985, 0.00617407662648852, 0.00740885070166588, 0.00864362477684324, 0.00987839885202060, 0.0104957858896093, 0.0111131729271980, 0.0117305599647866, 0.0123479470023753, 0.0135827210775527, 0.0148174951527300, 0.0154348821903187, 0.0160522692279074, 0.0166696562654961, 0.0172870433030847, 0.0185218173782621, 0.0197565914534395 ), .UNSPECIFIED. );
#197 = VERTEX_POINT( '', #360 );
#198 = CIRCLE( '', #361, 4.00000000000000 );
#199 = VERTEX_POINT( '', #362 );
#200 = CIRCLE( '', #363, 6.00000000000000 );
#201 = VERTEX_POINT( '', #364 );
#202 = CIRCLE( '', #365, 13.0000000000000 );
#203 = CIRCLE( '', #366, 11.5000000000000 );
#204 = CIRCLE( '', #367, 11.5000000000000 );
#205 = VERTEX_POINT( '', #368 );
#206 = CIRCLE( '', #369, 6.00000000000000 );
#207 = CARTESIAN_POINT( '', ( 3.46944695195362E-015, 0.000000000000000, -15.0000000000000 ) );
#208 = CARTESIAN_POINT( '', ( 10.4937500000000, 4.70438209943666, -15.0000000000000 ) );
#209 = CARTESIAN_POINT( '', ( 3.46944695195362E-015, 0.000000000000000, -15.0000000000000 ) );
#210 = CARTESIAN_POINT( '', ( 0.415526480030112, 0.239904085186898, -15.0000000000000 ) );
#211 = CARTESIAN_POINT( '', ( 0.833447883487675, 0.481192374760801, -15.0000000000000 ) );
#212 = CARTESIAN_POINT( '', ( 1.66884238364699, 0.958488772443012, -15.0000000000000 ) );
#213 = CARTESIAN_POINT( '', ( 2.08748094593524, 1.19517216738553, -15.0000000000000 ) );
#214 = CARTESIAN_POINT( '', ( 3.34908053316564, 1.89335832931430, -15.0000000000000 ) );
#215 = CARTESIAN_POINT( '', ( 4.19767115182099, 2.34311042784621, -15.0000000000000 ) );
#216 = CARTESIAN_POINT( '', ( 5.92595715776068, 3.17768954467720, -15.0000000000000 ) );
#217 = CARTESIAN_POINT( '', ( 6.80552864562725, 3.56277517861603, -15.0000000000000 ) );
#218 = CARTESIAN_POINT( '', ( 8.61480715019466, 4.22829840133681, -15.0000000000000 ) );
#219 = CARTESIAN_POINT( '', ( 9.55133615633184, 4.50988205674232, -15.0000000000000 ) );
#220 = CARTESIAN_POINT( '', ( 10.4937500000000, 4.70438209943665, -15.0000000000000 ) );
#221 = CARTESIAN_POINT( '', ( 10.4937500000000, -4.70438209943665, -15.0000000000000 ) );
#222 = CARTESIAN_POINT( '', ( 10.4937500000000, -4.70438209943666, -15.0000000000000 ) );
#223 = CARTESIAN_POINT( '', ( 10.0177605290052, -4.60614503187600, -15.0000000000000 ) );
#224 = CARTESIAN_POINT( '', ( 9.54464399421349, -4.48604307269083, -15.0000000000000 ) );
#225 = CARTESIAN_POINT( '', ( 8.61737837969247, -4.21387963080886, -15.0000000000000 ) );
#226 = CARTESIAN_POINT( '', ( 8.16095835470226, -4.06135123342207, -15.0000000000000 ) );
#227 = CARTESIAN_POINT( '', ( 6.80909615292166, -3.56409519297057, -15.0000000000000 ) );
#228 = CARTESIAN_POINT( '', ( 5.93094822861135, -3.17993297885508, -15.0000000000000 ) );
#229 = CARTESIAN_POINT( '', ( 4.20340554446393, -2.34604522496662, -15.0000000000000 ) );
#230 = CARTESIAN_POINT( '', ( 3.35411470873089, -1.89608271615029, -15.0000000000000 ) );
#231 = CARTESIAN_POINT( '', ( 2.09075765544133, -1.19701612791411, -15.0000000000000 ) );
#232 = CARTESIAN_POINT( '', ( 1.67137224436800, -0.959926907520801, -15.0000000000000 ) );
#233 = CARTESIAN_POINT( '', ( 1.04374984242420, -0.601350442992160, -15.0000000000000 ) );
#234 = CARTESIAN_POINT( '', ( 0.834814729381122, -0.481351157907262, -15.0000000000000 ) );
#235 = CARTESIAN_POINT( '', ( 0.417216177725175, -0.240879973504254, -15.0000000000000 ) );
#236 = CARTESIAN_POINT( '', ( 0.207580618294565, -0.119846606001955, -15.0000000000000 ) );
#237 = CARTESIAN_POINT( '', ( 3.46944695195362E-015, 0.000000000000000, -15.0000000000000 ) );
#238 = CARTESIAN_POINT( '', ( 10.4937499999993, 4.70438209943823, -14.9999999999998 ) );
#239 = CARTESIAN_POINT( '', ( 10.5000280270142, 4.82342220775733, -15.3991183888383 ) );
#240 = CARTESIAN_POINT( '', ( 10.5204227986392, 4.90908805884671, -15.8021258941104 ) );
#241 = CARTESIAN_POINT( '', ( 10.5787320409474, 4.98088674726338, -16.4129424837265 ) );
#242 = CARTESIAN_POINT( '', ( 10.6027922784005, 4.99529266118167, -16.6176101555321 ) );
#243 = CARTESIAN_POINT( '', ( 10.6613166691289, 5.00276656844233, -17.0293205527519 ) );
#244 = CARTESIAN_POINT( '', ( 10.6957143898643, 4.99565524462881, -17.2353491343010 ) );
#245 = CARTESIAN_POINT( '', ( 10.8124317155713, 4.94037559678608, -17.8413448223507 ) );
#246 = CARTESIAN_POINT( '', ( 10.9094569276428, 4.85836994953130, -18.2354762246807 ) );
#247 = CARTESIAN_POINT( '', ( 11.1356904550232, 4.59306083241497, -18.9936420380953 ) );
#248 = CARTESIAN_POINT( '', ( 11.2603283189581, 4.41514660530109, -19.3435099689478 ) );
#249 = CARTESIAN_POINT( '', ( 11.4542301299656, 4.07940685617698, -19.8276755233730 ) );
#250 = CARTESIAN_POINT( '', ( 11.5204883384164, 3.95486936182085, -19.9832424065768 ) );
#251 = CARTESIAN_POINT( '', ( 11.6501925261051, 3.68800859010868, -20.2735112293404 ) );
#252 = CARTESIAN_POINT( '', ( 11.7137954495037, 3.54558329398282, -20.4087513003705 ) );
#253 = CARTESIAN_POINT( '', ( 11.8982252550401, 3.09180773270088, -20.7866159045261 ) );
#254 = CARTESIAN_POINT( '', ( 12.0138540382938, 2.74907956804307, -21.0036340610719 ) );
#255 = CARTESIAN_POINT( '', ( 12.2048377162870, 2.02313332324813, -21.3485498414989 ) );
#256 = CARTESIAN_POINT( '', ( 12.2817182167628, 1.63645889888931, -21.4795848296634 ) );
#257 = CARTESIAN_POINT( '', ( 12.3866155426597, 0.829125437898421, -21.6562070949872 ) );
#258 = CARTESIAN_POINT( '', ( 12.4134031426893, 0.420219825167071, -21.6998088996857 ) );
#259 = CARTESIAN_POINT( '', ( 12.4138008688015, -0.200862462093919, -21.7004636171956 ) );
#260 = CARTESIAN_POINT( '', ( 12.4071289434542, -0.410473966581293, -21.6895112504864 ) );
#261 = CARTESIAN_POINT( '', ( 12.3807040779926, -0.821871873954297, -21.6457712818690 ) );
#262 = CARTESIAN_POINT( '', ( 12.3610349013234, -1.02455364639720, -21.6131211496124 ) );
#263 = CARTESIAN_POINT( '', ( 12.3095042882565, -1.42399618704362, -21.5263836022142 ) );
#264 = CARTESIAN_POINT( '', ( 12.2776405389774, -1.62075715432510, -21.4722985120738 ) );
#265 = CARTESIAN_POINT( '', ( 12.2021923723746, -2.00819591379477, -21.3416293006545 ) );
#266 = CARTESIAN_POINT( '', ( 12.1586467575334, -2.19815734381089, -21.2650808641858 ) );
#267 = CARTESIAN_POINT( '', ( 12.0156936988936, -2.74316269553466, -21.0070505857865 ) );
#268 = CARTESIAN_POINT( '', ( 11.9029040423364, -3.07927928934956, -20.7958454216324 ) );
#269 = CARTESIAN_POINT( '', ( 11.6541083001099, -3.69342957976228, -20.2868100581933 ) );
#270 = CARTESIAN_POINT( '', ( 11.5234733149405, -3.95857635778050, -19.9996349136344 ) );
#271 = CARTESIAN_POINT( '', ( 11.3295895731335, -4.29566471134358, -19.5168970982688 ) );
#272 = CARTESIAN_POINT( '', ( 11.2648232187252, -4.39845923815550, -19.3458267657794 ) );
#273 = CARTESIAN_POINT( '', ( 11.1406959917729, -4.57879904462972, -18.9927335355789 ) );
#274 = CARTESIAN_POINT( '', ( 11.0813461219923, -4.65652071561878, -18.8109518359351 ) );
#275 = CARTESIAN_POINT( '', ( 10.9694174456604, -4.78831057101636, -18.4369598155152 ) );
#276 = CARTESIAN_POINT( '', ( 10.9168378485287, -4.84237275291924, -18.2447475960025 ) );
#277 = CARTESIAN_POINT( '', ( 10.8196242898814, -4.92725484074335, -17.8496906945687 ) );
#278 = CARTESIAN_POINT( '', ( 10.7751603774996, -4.95779939166812, -17.6471528379047 ) );
#279 = CARTESIAN_POINT( '', ( 10.6578586063337, -5.01402938573302, -17.0401240441639 ) );
#280 = CARTESIAN_POINT( '', ( 10.5996546581035, -5.00582885219752, -16.6295676224374 ) );
#281 = CARTESIAN_POINT( '', ( 10.5204745770192, -4.90995679774371, -15.8051681853448 ) );
#282 = CARTESIAN_POINT( '', ( 10.5000365837715, -4.82358445574413, -15.3996623748657 ) );
#283 = CARTESIAN_POINT( '', ( 10.4937499999999, -4.70438209943692, -15.0000000000000 ) );
#284 = CARTESIAN_POINT( '', ( -10.4937500000000, -4.70438209943666, -15.0000000000000 ) );
#285 = CARTESIAN_POINT( '', ( 3.46944695195362E-015, 0.000000000000000, -15.0000000000000 ) );
#286 = CARTESIAN_POINT( '', ( -0.415526480030106, -0.239904085186899, -15.0000000000000 ) );
#287 = CARTESIAN_POINT( '', ( -0.833447883487669, -0.481192374760801, -15.0000000000000 ) );
#288 = CARTESIAN_POINT( '', ( -1.66884238364699, -0.958488772443012, -15.0000000000000 ) );
#289 = CARTESIAN_POINT( '', ( -2.08748094593523, -1.19517216738553, -15.0000000000000 ) );
#290 = CARTESIAN_POINT( '', ( -3.34908053316563, -1.89335832931430, -15.0000000000000 ) );
#291 = CARTESIAN_POINT( '', ( -4.19767115182099, -2.34311042784621, -15.0000000000000 ) );
#292 = CARTESIAN_POINT( '', ( -5.92595715776068, -3.17768954467720, -15.0000000000000 ) );
#293 = CARTESIAN_POINT( '', ( -6.80552864562725, -3.56277517861603, -15.0000000000000 ) );
#294 = CARTESIAN_POINT( '', ( -8.61480715019466, -4.22829840133681, -15.0000000000000 ) );
#295 = CARTESIAN_POINT( '', ( -9.55133615633183, -4.50988205674232, -15.0000000000000 ) );
#296 = CARTESIAN_POINT( '', ( -10.4937500000000, -4.70438209943665, -15.0000000000000 ) );
#297 = CARTESIAN_POINT( '', ( -10.4937500000000, 4.70438209943665, -15.0000000000000 ) );
#298 = CARTESIAN_POINT( '', ( -10.4937500000000, 4.70438209943666, -15.0000000000000 ) );
#299 = CARTESIAN_POINT( '', ( -10.0177605290052, 4.60614503187600, -15.0000000000000 ) );
#300 = CARTESIAN_POINT( '', ( -9.54464399421350, 4.48604307269083, -15.0000000000000 ) );
#301 = CARTESIAN_POINT( '', ( -8.61737837969247, 4.21387963080887, -15.0000000000000 ) );
#302 = CARTESIAN_POINT( '', ( -8.16095835470226, 4.06135123342207, -15.0000000000000 ) );
#303 = CARTESIAN_POINT( '', ( -6.80909615292166, 3.56409519297057, -15.0000000000000 ) );
#304 = CARTESIAN_POINT( '', ( -5.93094822861134, 3.17993297885508, -15.0000000000000 ) );
#305 = CARTESIAN_POINT( '', ( -4.20340554446392, 2.34604522496662, -15.0000000000000 ) );
#306 = CARTESIAN_POINT( '', ( -3.35411470873089, 1.89608271615029, -15.0000000000000 ) );
#307 = CARTESIAN_POINT( '', ( -2.09075765544132, 1.19701612791411, -15.0000000000000 ) );
#308 = CARTESIAN_POINT( '', ( -1.67137224436800, 0.959926907520801, -15.0000000000000 ) );
#309 = CARTESIAN_POINT( '', ( -1.04374984242419, 0.601350442992159, -15.0000000000000 ) );
#310 = CARTESIAN_POINT( '', ( -0.834814729381116, 0.481351157907263, -15.0000000000000 ) );
#311 = CARTESIAN_POINT( '', ( -0.417216177725169, 0.240879973504254, -15.0000000000000 ) );
#312 = CARTESIAN_POINT( '', ( -0.207580618294558, 0.119846606001955, -15.0000000000000 ) );
#313 = CARTESIAN_POINT( '', ( 3.46944695195362E-015, 0.000000000000000, -15.0000000000000 ) );
#314 = CARTESIAN_POINT( '', ( -10.4937499999993, -4.70438209943823, -14.9999999999998 ) );
#315 = CARTESIAN_POINT( '', ( -10.5000280270142, -4.82342220775733, -15.3991183888383 ) );
#316 = CARTESIAN_POINT( '', ( -10.5204227986392, -4.90908805884672, -15.8021258941104 ) );
#317 = CARTESIAN_POINT( '', ( -10.5787320409474, -4.98088674726338, -16.4129424837266 ) );
#318 = CARTESIAN_POINT( '', ( -10.6027922784005, -4.99529266118167, -16.6176101555321 ) );
#319 = CARTESIAN_POINT( '', ( -10.6613166691289, -5.00276656844233, -17.0293205527519 ) );
#320 = CARTESIAN_POINT( '', ( -10.6957143898643, -4.99565524462881, -17.2353491343010 ) );
#321 = CARTESIAN_POINT( '', ( -10.8124317155713, -4.94037559678608, -17.8413448223507 ) );
#322 = CARTESIAN_POINT( '', ( -10.9094569276428, -4.85836994953129, -18.2354762246807 ) );
#323 = CARTESIAN_POINT( '', ( -11.1356904550232, -4.59306083241497, -18.9936420380953 ) );
#324 = CARTESIAN_POINT( '', ( -11.2603283189581, -4.41514660530109, -19.3435099689478 ) );
#325 = CARTESIAN_POINT( '', ( -11.4542301299656, -4.07940685617698, -19.8276755233730 ) );
#326 = CARTESIAN_POINT( '', ( -11.5204883384164, -3.95486936182085, -19.9832424065768 ) );
#327 = CARTESIAN_POINT( '', ( -11.6501925261051, -3.68800859010868, -20.2735112293404 ) );
#328 = CARTESIAN_POINT( '', ( -11.7137954495037, -3.54558329398281, -20.4087513003705 ) );
#329 = CARTESIAN_POINT( '', ( -11.8982252550401, -3.09180773270087, -20.7866159045261 ) );
#330 = CARTESIAN_POINT( '', ( -12.0138540382938, -2.74907956804307, -21.0036340610719 ) );
#331 = CARTESIAN_POINT( '', ( -12.2048377162870, -2.02313332324812, -21.3485498414989 ) );
#332 = CARTESIAN_POINT( '', ( -12.2817182167628, -1.63645889888931, -21.4795848296634 ) );
#333 = CARTESIAN_POINT( '', ( -12.3866155426597, -0.829125437898417, -21.6562070949872 ) );
#334 = CARTESIAN_POINT( '', ( -12.4134031426893, -0.420219825167067, -21.6998088996857 ) );
#335 = CARTESIAN_POINT( '', ( -12.4138008688015, 0.200862462093924, -21.7004636171956 ) );
#336 = CARTESIAN_POINT( '', ( -12.4071289434542, 0.410473966581295, -21.6895112504864 ) );
#337 = CARTESIAN_POINT( '', ( -12.3807040779926, 0.821871873954300, -21.6457712818690 ) );
#338 = CARTESIAN_POINT( '', ( -12.3610349013234, 1.02455364639720, -21.6131211496124 ) );
#339 = CARTESIAN_POINT( '', ( -12.3095042882565, 1.42399618704362, -21.5263836022142 ) );
#340 = CARTESIAN_POINT( '', ( -12.2776405389774, 1.62075715432510, -21.4722985120738 ) );
#341 = CARTESIAN_POINT( '', ( -12.2021923723746, 2.00819591379477, -21.3416293006545 ) );
#342 = CARTESIAN_POINT( '', ( -12.1586467575334, 2.19815734381090, -21.2650808641858 ) );
#343 = CARTESIAN_POINT( '', ( -12.0156936988936, 2.74316269553466, -21.0070505857865 ) );
#344 = CARTESIAN_POINT( '', ( -11.9029040423364, 3.07927928934956, -20.7958454216324 ) );
#345 = CARTESIAN_POINT( '', ( -11.6541083001099, 3.69342957976228, -20.2868100581932 ) );
#346 = CARTESIAN_POINT( '', ( -11.5234733149405, 3.95857635778050, -19.9996349136344 ) );
#347 = CARTESIAN_POINT( '', ( -11.3295895731335, 4.29566471134358, -19.5168970982688 ) );
#348 = CARTESIAN_POINT( '', ( -11.2648232187252, 4.39845923815549, -19.3458267657794 ) );
#349 = CARTESIAN_POINT( '', ( -11.1406959917729, 4.57879904462972, -18.9927335355789 ) );
#350 = CARTESIAN_POINT( '', ( -11.0813461219923, 4.65652071561878, -18.8109518359351 ) );
#351 = CARTESIAN_POINT( '', ( -10.9694174456604, 4.78831057101636, -18.4369598155152 ) );
#352 = CARTESIAN_POINT( '', ( -10.9168378485287, 4.84237275291924, -18.2447475960025 ) );
#353 = CARTESIAN_POINT( '', ( -10.8196242898814, 4.92725484074335, -17.8496906945687 ) );
#354 = CARTESIAN_POINT( '', ( -10.7751603774996, 4.95779939166812, -17.6471528379047 ) );
#355 = CARTESIAN_POINT( '', ( -10.6578586063337, 5.01402938573302, -17.0401240441638 ) );
#356 = CARTESIAN_POINT( '', ( -10.5996546581035, 5.00582885219752, -16.6295676224374 ) );
#357 = CARTESIAN_POINT( '', ( -10.5204745770192, 4.90995679774371, -15.8051681853448 ) );
#358 = CARTESIAN_POINT( '', ( -10.5000365837715, 4.82358445574413, -15.3996623748657 ) );
#359 = CARTESIAN_POINT( '', ( -10.4937499999999, 4.70438209943692, -15.0000000000000 ) );
#360 = CARTESIAN_POINT( '', ( 4.00000000000000, 0.000000000000000, -47.0000000000000 ) );
#361 = AXIS2_PLACEMENT_3D( '', #370, #371, #372 );
#362 = CARTESIAN_POINT( '', ( 6.00000000000000, 0.000000000000000, -45.0000000000000 ) );
#363 = AXIS2_PLACEMENT_3D( '', #373, #374, #375 );
#364 = CARTESIAN_POINT( '', ( 13.0000000000000, 0.000000000000000, -26.0000000000000 ) );
#365 = AXIS2_PLACEMENT_3D( '', #376, #377, #378 );
#366 = AXIS2_PLACEMENT_3D( '', #379, #380, #381 );
#367 = AXIS2_PLACEMENT_3D( '', #382, #383, #384 );
#368 = CARTESIAN_POINT( '', ( -6.00000000000000, 0.000000000000000, -26.0000000000000 ) );
#369 = AXIS2_PLACEMENT_3D( '', #385, #386, #387 );
#370 = CARTESIAN_POINT( '', ( 0.000000000000000, 0.000000000000000, -47.0000000000000 ) );
#371 = DIRECTION( '', ( 0.000000000000000, 0.000000000000000, 1.00000000000000 ) );
#372 = DIRECTION( '', ( 1.00000000000000, 0.000000000000000, 0.000000000000000 ) );
#373 = CARTESIAN_POINT( '', ( 0.000000000000000, 0.000000000000000, -45.0000000000000 ) );
#374 = DIRECTION( '', ( 0.000000000000000, 0.000000000000000, 1.00000000000000 ) );
#375 = DIRECTION( '', ( 1.00000000000000, 0.000000000000000, 0.000000000000000 ) );
#376 = CARTESIAN_POINT( '', ( 0.000000000000000, 0.000000000000000, -26.0000000000000 ) );
#377 = DIRECTION( '', ( 0.000000000000000, 0.000000000000000, 1.00000000000000 ) );
#378 = DIRECTION( '', ( 1.00000000000000, 0.000000000000000, 0.000000000000000 ) );
#379 = CARTESIAN_POINT( '', ( 0.000000000000000, 0.000000000000000, -15.0000000000000 ) );
#380 = DIRECTION( '', ( 0.000000000000000, 0.000000000000000, 1.00000000000000 ) );
#381 = DIRECTION( '', ( 1.00000000000000, 0.000000000000000, 0.000000000000000 ) );
#382 = CARTESIAN_POINT( '', ( 0.000000000000000, 0.000000000000000, -15.0000000000000 ) );
#383 = DIRECTION( '', ( 0.000000000000000, 0.000000000000000, 1.00000000000000 ) );
#384 = DIRECTION( '', ( 1.00000000000000, 0.000000000000000, 0.000000000000000 ) );
#385 = CARTESIAN_POINT( '', ( 0.000000000000000, 0.000000000000000, -26.0000000000000 ) );
#386 = DIRECTION( '', ( 0.000000000000000, 0.000000000000000, -1.00000000000000 ) );
#387 = DIRECTION( '', ( -1.00000000000000, 0.000000000000000, 0.000000000000000 ) );
ENDSEC;
END-ISO-10303-21;
