ISO-10303-21;
HEADER;
FILE_DESCRIPTION( ( 'Unknown' ), '1' );
FILE_NAME( 'S:/LEAVE 2D&3D CAD/LEAVE 3D-PAR/Metric/PT/PT34-3D/PT34-10.stp', 'Unknown', ( 'Unknown' ), ( 'Unknown' ), 'XStep 1.0', 'Unknown', '  ' );
FILE_SCHEMA( ( 'CONFIG_CONTROL_DESIGN' ) );
ENDSEC;
DATA;
#1 = DESIGN_CONTEXT( '', #27, 'design' );
#2 = APPLICATION_PROTOCOL_DEFINITION( 'INTERNATIONAL STANDARD', 'config_control_design', 1994, #27 );
#3 = PRODUCT_CATEGORY_RELATIONSHIP( 'NONE', 'NONE', #28, #29 );
#4 = DATE_AND_TIME( #30, #31 );
#5 = DATE_TIME_ROLE( 'creation_date' );
#6 = DATE_TIME_ROLE( 'classification_date' );
#7 = PERSON_AND_ORGANIZATION_ROLE( 'creator' );
#8 = PERSON_AND_ORGANIZATION_ROLE( 'design_supplier' );
#9 = PERSON_AND_ORGANIZATION_ROLE( 'classification_officer' );
#10 = PERSON_AND_ORGANIZATION_ROLE( 'design_owner' );
#11 = APPROVAL_PERSON_ORGANIZATION( #32, #33, #34 );
#12 = APPROVAL_DATE_TIME( #4, #33 );
#13 = CC_DESIGN_APPROVAL( #33, ( #35, #36, #37 ) );
#14 = CC_DESIGN_DATE_AND_TIME_ASSIGNMENT( #4, #5, ( #37 ) );
#15 = CC_DESIGN_DATE_AND_TIME_ASSIGNMENT( #4, #6, ( #35 ) );
#16 = CC_DESIGN_PERSON_AND_ORGANIZATION_ASSIGNMENT( #32, #10, ( #38 ) );
#17 = CC_DESIGN_PERSON_AND_ORGANIZATION_ASSIGNMENT( #32, #7, ( #37 ) );
#18 = CC_DESIGN_PERSON_AND_ORGANIZATION_ASSIGNMENT( #32, #7, ( #36 ) );
#19 = CC_DESIGN_PERSON_AND_ORGANIZATION_ASSIGNMENT( #32, #8, ( #36 ) );
#20 = CC_DESIGN_SECURITY_CLASSIFICATION( #35, ( #36 ) );
#21 = CC_DESIGN_PERSON_AND_ORGANIZATION_ASSIGNMENT( #32, #9, ( #35 ) );
#22 = SHAPE_DEFINITION_REPRESENTATION( #39, #40 );
#23 =  ( GEOMETRIC_REPRESENTATION_CONTEXT( 3 )GLOBAL_UNCERTAINTY_ASSIGNED_CONTEXT( ( #43 ) )GLOBAL_UNIT_ASSIGNED_CONTEXT( ( #45, #46, #47 ) )REPRESENTATION_CONTEXT( 'NONE', 'WORKSPACE' ) );
#27 = APPLICATION_CONTEXT( 'CONFIGURATION CONTROLLED 3D DESIGNS OF MECHANICAL PARTS AND ASSEMBLIES' );
#28 = PRODUCT_CATEGORY( 'part', 'NONE' );
#29 = PRODUCT_RELATED_PRODUCT_CATEGORY( 'detail', ' ', ( #38 ) );
#30 = CALENDAR_DATE( 2009, 10, 10 );
#31 = LOCAL_TIME( 15, 57, 32.0000000000000, #49 );
#32 = PERSON_AND_ORGANIZATION( #50, #51 );
#33 = APPROVAL( #52, 'SOLID MODEL' );
#34 = APPROVAL_ROLE( 'APPROVED' );
#35 = SECURITY_CLASSIFICATION( '', '', #53 );
#36 = PRODUCT_DEFINITION_FORMATION_WITH_SPECIFIED_SOURCE( ' ', 'NONE', #38, .NOT_KNOWN. );
#37 = PRODUCT_DEFINITION( 'NONE', 'NONE', #36, #1 );
#38 = PRODUCT( '1', '1', 'PART-1-DESC', ( #54 ) );
#39 = PRODUCT_DEFINITION_SHAPE( 'NONE', 'NONE', #37 );
#40 = ADVANCED_BREP_SHAPE_REPRESENTATION( '1', ( #55, #56 ), #23 );
#43 = UNCERTAINTY_MEASURE_WITH_UNIT( LENGTH_MEASURE( 0.00100000000000000 ), #45, '', '' );
#45 =  ( CONVERSION_BASED_UNIT( 'MILLIMETRE', #59 )LENGTH_UNIT(  )NAMED_UNIT( #62 ) );
#46 =  ( NAMED_UNIT( #64 )PLANE_ANGLE_UNIT(  )SI_UNIT( $, .RADIAN. ) );
#47 =  ( NAMED_UNIT( #64 )SOLID_ANGLE_UNIT(  )SI_UNIT( $, .STERADIAN. ) );
#49 = COORDINATED_UNIVERSAL_TIME_OFFSET( 8, 0, .AHEAD. );
#50 = PERSON( '', 'UNSPECIFIED', $, $, $, $ );
#51 = ORGANIZATION( 'UNSPECIFIED', 'UNSPECIFIED', 'UNSPECIFIED' );
#52 = APPROVAL_STATUS( 'approved' );
#53 = SECURITY_CLASSIFICATION_LEVEL( 'unclassified' );
#54 = MECHANICAL_CONTEXT( '', #27, 'mechanical' );
#55 = MANIFOLD_SOLID_BREP( '1', #70 );
#56 = AXIS2_PLACEMENT_3D( '', #71, #72, #73 );
#59 = LENGTH_MEASURE_WITH_UNIT( LENGTH_MEASURE( 1.00000000000000 ), #74 );
#62 = DIMENSIONAL_EXPONENTS( 1.00000000000000, 0.000000000000000, 0.000000000000000, 0.000000000000000, 0.000000000000000, 0.000000000000000, 0.000000000000000 );
#64 = DIMENSIONAL_EXPONENTS( 0.000000000000000, 0.000000000000000, 0.000000000000000, 0.000000000000000, 0.000000000000000, 0.000000000000000, 0.000000000000000 );
#70 = CLOSED_SHELL( '', ( #75, #76, #77, #78, #79, #80, #81, #82, #83, #84 ) );
#71 = CARTESIAN_POINT( '', ( 0.000000000000000, 0.000000000000000, 0.000000000000000 ) );
#72 = DIRECTION( '', ( 0.000000000000000, 0.000000000000000, 1.00000000000000 ) );
#73 = DIRECTION( '', ( 1.00000000000000, 0.000000000000000, 0.000000000000000 ) );
#74 =  ( NAMED_UNIT( #62 )LENGTH_UNIT(  )SI_UNIT( .MILLI., .METRE. ) );
#75 = ADVANCED_FACE( '', ( #86, #87 ), #88, .T. );
#76 = ADVANCED_FACE( '', ( #89, #90 ), #91, .F. );
#77 = ADVANCED_FACE( '', ( #92 ), #93, .F. );
#78 = ADVANCED_FACE( '', ( #94 ), #95, .T. );
#79 = ADVANCED_FACE( '', ( #96, #97 ), #98, .T. );
#80 = ADVANCED_FACE( '', ( #99, #100 ), #101, .T. );
#81 = ADVANCED_FACE( '', ( #102, #103 ), #104, .T. );
#82 = ADVANCED_FACE( '', ( #105 ), #106, .F. );
#83 = ADVANCED_FACE( '', ( #107, #108 ), #109, .T. );
#84 = ADVANCED_FACE( '', ( #110 ), #111, .F. );
#86 = FACE_OUTER_BOUND( '', #112, .T. );
#87 = FACE_OUTER_BOUND( '', #113, .T. );
#88 = CYLINDRICAL_SURFACE( '', #114, 4.95000000000000 );
#89 = FACE_OUTER_BOUND( '', #115, .T. );
#90 = FACE_OUTER_BOUND( '', #116, .T. );
#91 = TOROIDAL_SURFACE( '', #117, 5.45000000000000, 0.500000000000000 );
#92 = FACE_OUTER_BOUND( '', #118, .T. );
#93 = CYLINDRICAL_SURFACE( '', #119, 9.50000000000000 );
#94 = FACE_OUTER_BOUND( '', #120, .T. );
#95 = PLANE( '', #121 );
#96 = FACE_BOUND( '', #122, .T. );
#97 = FACE_OUTER_BOUND( '', #123, .T. );
#98 = PLANE( '', #124 );
#99 = FACE_BOUND( '', #125, .T. );
#100 = FACE_OUTER_BOUND( '', #126, .T. );
#101 = PLANE( '', #127 );
#102 = FACE_BOUND( '', #128, .T. );
#103 = FACE_OUTER_BOUND( '', #129, .T. );
#104 = CONICAL_SURFACE( '', #130, 4.95000000000000, 0.785398163397448 );
#105 = FACE_OUTER_BOUND( '', #131, .T. );
#106 = PLANE( '', #132 );
#107 = FACE_OUTER_BOUND( '', #133, .T. );
#108 = FACE_OUTER_BOUND( '', #134, .T. );
#109 = CYLINDRICAL_SURFACE( '', #135, 5.51500000000000 );
#110 = FACE_OUTER_BOUND( '', #136, .T. );
#111 = PLANE( '', #137 );
#112 = EDGE_LOOP( '', ( #138 ) );
#113 = EDGE_LOOP( '', ( #139 ) );
#114 = AXIS2_PLACEMENT_3D( '', #140, #141, #142 );
#115 = EDGE_LOOP( '', ( #143 ) );
#116 = EDGE_LOOP( '', ( #144 ) );
#117 = AXIS2_PLACEMENT_3D( '', #145, #146, #147 );
#118 = EDGE_LOOP( '', ( #148, #149, #150, #151 ) );
#119 = AXIS2_PLACEMENT_3D( '', #152, #153, #154 );
#120 = EDGE_LOOP( '', ( #155, #156 ) );
#121 = AXIS2_PLACEMENT_3D( '', #157, #158, #159 );
#122 = EDGE_LOOP( '', ( #160, #161, #162, #163 ) );
#123 = EDGE_LOOP( '', ( #164 ) );
#124 = AXIS2_PLACEMENT_3D( '', #165, #166, #167 );
#125 = EDGE_LOOP( '', ( #168 ) );
#126 = EDGE_LOOP( '', ( #169 ) );
#127 = AXIS2_PLACEMENT_3D( '', #170, #171, #172 );
#128 = EDGE_LOOP( '', ( #173 ) );
#129 = EDGE_LOOP( '', ( #174 ) );
#130 = AXIS2_PLACEMENT_3D( '', #175, #176, #177 );
#131 = EDGE_LOOP( '', ( #178 ) );
#132 = AXIS2_PLACEMENT_3D( '', #179, #180, #181 );
#133 = EDGE_LOOP( '', ( #182 ) );
#134 = EDGE_LOOP( '', ( #183 ) );
#135 = AXIS2_PLACEMENT_3D( '', #184, #185, #186 );
#136 = EDGE_LOOP( '', ( #187, #188 ) );
#137 = AXIS2_PLACEMENT_3D( '', #189, #190, #191 );
#138 = ORIENTED_EDGE( '', *, *, #192, .T. );
#139 = ORIENTED_EDGE( '', *, *, #193, .T. );
#140 = CARTESIAN_POINT( '', ( 0.000000000000000, 0.000000000000000, 19.0000000000000 ) );
#141 = DIRECTION( '', ( -0.000000000000000, -0.000000000000000, 1.00000000000000 ) );
#142 = DIRECTION( '', ( -1.00000000000000, 0.000000000000000, 0.000000000000000 ) );
#143 = ORIENTED_EDGE( '', *, *, #192, .F. );
#144 = ORIENTED_EDGE( '', *, *, #194, .F. );
#145 = CARTESIAN_POINT( '', ( 0.000000000000000, 0.000000000000000, 18.0000000000000 ) );
#146 = DIRECTION( '', ( 0.000000000000000, 0.000000000000000, -1.00000000000000 ) );
#147 = DIRECTION( '', ( -1.00000000000000, 0.000000000000000, 0.000000000000000 ) );
#148 = ORIENTED_EDGE( '', *, *, #195, .F. );
#149 = ORIENTED_EDGE( '', *, *, #196, .F. );
#150 = ORIENTED_EDGE( '', *, *, #197, .T. );
#151 = ORIENTED_EDGE( '', *, *, #198, .T. );
#152 = CARTESIAN_POINT( '', ( 0.000000000000000, -0.750000000000000, 27.0000000000000 ) );
#153 = DIRECTION( '', ( -0.000000000000000, -1.00000000000000, -0.000000000000000 ) );
#154 = DIRECTION( '', ( 0.000000000000000, 0.000000000000000, 1.00000000000000 ) );
#155 = ORIENTED_EDGE( '', *, *, #199, .T. );
#156 = ORIENTED_EDGE( '', *, *, #195, .T. );
#157 = CARTESIAN_POINT( '', ( 0.000000000000000, 0.750000000000000, 27.0000000000000 ) );
#158 = DIRECTION( '', ( 0.000000000000000, -1.00000000000000, 0.000000000000000 ) );
#159 = DIRECTION( '', ( 0.000000000000000, 0.000000000000000, -1.00000000000000 ) );
#160 = ORIENTED_EDGE( '', *, *, #200, .T. );
#161 = ORIENTED_EDGE( '', *, *, #196, .T. );
#162 = ORIENTED_EDGE( '', *, *, #199, .F. );
#163 = ORIENTED_EDGE( '', *, *, #198, .F. );
#164 = ORIENTED_EDGE( '', *, *, #201, .T. );
#165 = CARTESIAN_POINT( '', ( 0.000000000000000, 0.000000000000000, 19.0000000000000 ) );
#166 = DIRECTION( '', ( 0.000000000000000, 0.000000000000000, 1.00000000000000 ) );
#167 = DIRECTION( '', ( 1.00000000000000, 0.000000000000000, 0.000000000000000 ) );
#168 = ORIENTED_EDGE( '', *, *, #194, .T. );
#169 = ORIENTED_EDGE( '', *, *, #202, .F. );
#170 = CARTESIAN_POINT( '', ( 5.51500000000000, 0.000000000000000, 18.5000000000000 ) );
#171 = DIRECTION( '', ( 0.000000000000000, 0.000000000000000, -1.00000000000000 ) );
#172 = DIRECTION( '', ( -1.00000000000000, 0.000000000000000, 0.000000000000000 ) );
#173 = ORIENTED_EDGE( '', *, *, #203, .F. );
#174 = ORIENTED_EDGE( '', *, *, #193, .F. );
#175 = CARTESIAN_POINT( '', ( 0.000000000000000, 0.000000000000000, 1.00000000000000 ) );
#176 = DIRECTION( '', ( -0.000000000000000, -0.000000000000000, 1.00000000000000 ) );
#177 = DIRECTION( '', ( 1.00000000000000, 0.000000000000000, 0.000000000000000 ) );
#178 = ORIENTED_EDGE( '', *, *, #203, .T. );
#179 = CARTESIAN_POINT( '', ( 0.000000000000000, 0.000000000000000, 0.000000000000000 ) );
#180 = DIRECTION( '', ( 0.000000000000000, 0.000000000000000, 1.00000000000000 ) );
#181 = DIRECTION( '', ( 1.00000000000000, 0.000000000000000, 0.000000000000000 ) );
#182 = ORIENTED_EDGE( '', *, *, #202, .T. );
#183 = ORIENTED_EDGE( '', *, *, #201, .F. );
#184 = CARTESIAN_POINT( '', ( 0.000000000000000, 0.000000000000000, 54.0000000000000 ) );
#185 = DIRECTION( '', ( -0.000000000000000, -0.000000000000000, -1.00000000000000 ) );
#186 = DIRECTION( '', ( 1.00000000000000, 0.000000000000000, 0.000000000000000 ) );
#187 = ORIENTED_EDGE( '', *, *, #200, .F. );
#188 = ORIENTED_EDGE( '', *, *, #197, .F. );
#189 = CARTESIAN_POINT( '', ( 0.000000000000000, -0.750000000000000, 27.0000000000000 ) );
#190 = DIRECTION( '', ( 0.000000000000000, -1.00000000000000, 0.000000000000000 ) );
#191 = DIRECTION( '', ( 0.000000000000000, 0.000000000000000, -1.00000000000000 ) );
#192 = EDGE_CURVE( '', #204, #204, #205, .T. );
#193 = EDGE_CURVE( '', #206, #206, #207, .T. );
#194 = EDGE_CURVE( '', #208, #208, #209, .F. );
#195 = EDGE_CURVE( '', #210, #211, #212, .T. );
#196 = EDGE_CURVE( '', #213, #210, #214, .T. );
#197 = EDGE_CURVE( '', #213, #215, #216, .T. );
#198 = EDGE_CURVE( '', #215, #211, #217, .T. );
#199 = EDGE_CURVE( '', #211, #210, #218, .T. );
#200 = EDGE_CURVE( '', #215, #213, #219, .T. );
#201 = EDGE_CURVE( '', #220, #220, #221, .T. );
#202 = EDGE_CURVE( '', #222, #222, #223, .T. );
#203 = EDGE_CURVE( '', #224, #224, #225, .F. );
#204 = VERTEX_POINT( '', #226 );
#205 = CIRCLE( '', #227, 4.95000000000000 );
#206 = VERTEX_POINT( '', #228 );
#207 = CIRCLE( '', #229, 4.95000000000000 );
#208 = VERTEX_POINT( '', #230 );
#209 = CIRCLE( '', #231, 5.45000000000000 );
#210 = VERTEX_POINT( '', #232 );
#211 = VERTEX_POINT( '', #233 );
#212 = CIRCLE( '', #234, 9.50000000000000 );
#213 = VERTEX_POINT( '', #235 );
#214 = LINE( '', #236, #237 );
#215 = VERTEX_POINT( '', #238 );
#216 = CIRCLE( '', #239, 9.50000000000000 );
#217 = LINE( '', #240, #241 );
#218 = LINE( '', #242, #243 );
#219 = LINE( '', #244, #245 );
#220 = VERTEX_POINT( '', #246 );
#221 = CIRCLE( '', #247, 5.51500000000000 );
#222 = VERTEX_POINT( '', #248 );
#223 = CIRCLE( '', #249, 5.51500000000000 );
#224 = VERTEX_POINT( '', #250 );
#225 = CIRCLE( '', #251, 3.95000000000000 );
#226 = CARTESIAN_POINT( '', ( -4.95000000000000, 0.000000000000000, 18.0000000000000 ) );
#227 = AXIS2_PLACEMENT_3D( '', #252, #253, #254 );
#228 = CARTESIAN_POINT( '', ( 4.95000000000000, 0.000000000000000, 1.00000000000000 ) );
#229 = AXIS2_PLACEMENT_3D( '', #255, #256, #257 );
#230 = CARTESIAN_POINT( '', ( -5.45000000000000, 0.000000000000000, 18.5000000000000 ) );
#231 = AXIS2_PLACEMENT_3D( '', #258, #259, #260 );
#232 = CARTESIAN_POINT( '', ( -5.12347538297981, 0.750000000000000, 19.0000000000000 ) );
#233 = CARTESIAN_POINT( '', ( 5.12347538297981, 0.750000000000000, 19.0000000000000 ) );
#234 = AXIS2_PLACEMENT_3D( '', #261, #262, #263 );
#235 = CARTESIAN_POINT( '', ( -5.12347538297981, -0.750000000000000, 19.0000000000000 ) );
#236 = CARTESIAN_POINT( '', ( -5.12347538297981, -0.750000000000000, 19.0000000000000 ) );
#237 = VECTOR( '', #264, 1000.00000000000 );
#238 = CARTESIAN_POINT( '', ( 5.12347538297981, -0.750000000000000, 19.0000000000000 ) );
#239 = AXIS2_PLACEMENT_3D( '', #265, #266, #267 );
#240 = CARTESIAN_POINT( '', ( 5.12347538297981, -0.750000000000000, 19.0000000000000 ) );
#241 = VECTOR( '', #268, 1000.00000000000 );
#242 = CARTESIAN_POINT( '', ( 5.12347538297981, 0.750000000000000, 19.0000000000000 ) );
#243 = VECTOR( '', #269, 1000.00000000000 );
#244 = CARTESIAN_POINT( '', ( 5.12347538297981, -0.750000000000000, 19.0000000000000 ) );
#245 = VECTOR( '', #270, 1000.00000000000 );
#246 = CARTESIAN_POINT( '', ( 5.51500000000000, 0.000000000000000, 19.0000000000000 ) );
#247 = AXIS2_PLACEMENT_3D( '', #271, #272, #273 );
#248 = CARTESIAN_POINT( '', ( 5.51500000000000, 0.000000000000000, 18.5000000000000 ) );
#249 = AXIS2_PLACEMENT_3D( '', #274, #275, #276 );
#250 = CARTESIAN_POINT( '', ( 3.95000000000000, 0.000000000000000, 0.000000000000000 ) );
#251 = AXIS2_PLACEMENT_3D( '', #277, #278, #279 );
#252 = CARTESIAN_POINT( '', ( 0.000000000000000, 0.000000000000000, 18.0000000000000 ) );
#253 = DIRECTION( '', ( 0.000000000000000, 0.000000000000000, -1.00000000000000 ) );
#254 = DIRECTION( '', ( -1.00000000000000, 0.000000000000000, 0.000000000000000 ) );
#255 = CARTESIAN_POINT( '', ( 0.000000000000000, 0.000000000000000, 1.00000000000000 ) );
#256 = DIRECTION( '', ( 0.000000000000000, 0.000000000000000, 1.00000000000000 ) );
#257 = DIRECTION( '', ( 1.00000000000000, 0.000000000000000, 0.000000000000000 ) );
#258 = CARTESIAN_POINT( '', ( 0.000000000000000, 0.000000000000000, 18.5000000000000 ) );
#259 = DIRECTION( '', ( 0.000000000000000, 0.000000000000000, -1.00000000000000 ) );
#260 = DIRECTION( '', ( -1.00000000000000, 0.000000000000000, 0.000000000000000 ) );
#261 = CARTESIAN_POINT( '', ( 0.000000000000000, 0.750000000000000, 27.0000000000000 ) );
#262 = DIRECTION( '', ( 0.000000000000000, -1.00000000000000, 0.000000000000000 ) );
#263 = DIRECTION( '', ( 1.00000000000000, 0.000000000000000, 0.000000000000000 ) );
#264 = DIRECTION( '', ( 0.000000000000000, 1.00000000000000, 0.000000000000000 ) );
#265 = CARTESIAN_POINT( '', ( 0.000000000000000, -0.750000000000000, 27.0000000000000 ) );
#266 = DIRECTION( '', ( 0.000000000000000, -1.00000000000000, 0.000000000000000 ) );
#267 = DIRECTION( '', ( 1.00000000000000, 0.000000000000000, 0.000000000000000 ) );
#268 = DIRECTION( '', ( 0.000000000000000, 1.00000000000000, 0.000000000000000 ) );
#269 = DIRECTION( '', ( -1.00000000000000, 0.000000000000000, 0.000000000000000 ) );
#270 = DIRECTION( '', ( -1.00000000000000, 0.000000000000000, 0.000000000000000 ) );
#271 = CARTESIAN_POINT( '', ( 0.000000000000000, 0.000000000000000, 19.0000000000000 ) );
#272 = DIRECTION( '', ( 0.000000000000000, 0.000000000000000, 1.00000000000000 ) );
#273 = DIRECTION( '', ( 1.00000000000000, 0.000000000000000, 0.000000000000000 ) );
#274 = CARTESIAN_POINT( '', ( 0.000000000000000, 0.000000000000000, 18.5000000000000 ) );
#275 = DIRECTION( '', ( 0.000000000000000, 0.000000000000000, 1.00000000000000 ) );
#276 = DIRECTION( '', ( 1.00000000000000, 0.000000000000000, 0.000000000000000 ) );
#277 = CARTESIAN_POINT( '', ( 0.000000000000000, 0.000000000000000, 0.000000000000000 ) );
#278 = DIRECTION( '', ( 0.000000000000000, 0.000000000000000, 1.00000000000000 ) );
#279 = DIRECTION( '', ( 1.00000000000000, 0.000000000000000, 0.000000000000000 ) );
ENDSEC;
END-ISO-10303-21;
