ISO-10303-21;
HEADER;
FILE_DESCRIPTION( ( 'Unknown' ), '1' );
FILE_NAME( 'S:/LEAVE 2D&3D CAD/LEAVE 3D-PAR/Metric/PT/PT34-3D/PT34-12.stp', 'Unknown', ( 'Unknown' ), ( 'Unknown' ), 'XStep 1.0', 'Unknown', '  ' );
FILE_SCHEMA( ( 'CONFIG_CONTROL_DESIGN' ) );
ENDSEC;
DATA;
#1 = DESIGN_CONTEXT( '', #27, 'design' );
#2 = APPLICATION_PROTOCOL_DEFINITION( 'INTERNATIONAL STANDARD', 'config_control_design', 1994, #27 );
#3 = PRODUCT_CATEGORY_RELATIONSHIP( 'NONE', 'NONE', #28, #29 );
#4 = DATE_AND_TIME( #30, #31 );
#5 = DATE_TIME_ROLE( 'creation_date' );
#6 = DATE_TIME_ROLE( 'classification_date' );
#7 = PERSON_AND_ORGANIZATION_ROLE( 'creator' );
#8 = PERSON_AND_ORGANIZATION_ROLE( 'design_supplier' );
#9 = PERSON_AND_ORGANIZATION_ROLE( 'classification_officer' );
#10 = PERSON_AND_ORGANIZATION_ROLE( 'design_owner' );
#11 = APPROVAL_PERSON_ORGANIZATION( #32, #33, #34 );
#12 = APPROVAL_DATE_TIME( #4, #33 );
#13 = CC_DESIGN_APPROVAL( #33, ( #35, #36, #37 ) );
#14 = CC_DESIGN_DATE_AND_TIME_ASSIGNMENT( #4, #5, ( #37 ) );
#15 = CC_DESIGN_DATE_AND_TIME_ASSIGNMENT( #4, #6, ( #35 ) );
#16 = CC_DESIGN_PERSON_AND_ORGANIZATION_ASSIGNMENT( #32, #10, ( #38 ) );
#17 = CC_DESIGN_PERSON_AND_ORGANIZATION_ASSIGNMENT( #32, #7, ( #37 ) );
#18 = CC_DESIGN_PERSON_AND_ORGANIZATION_ASSIGNMENT( #32, #7, ( #36 ) );
#19 = CC_DESIGN_PERSON_AND_ORGANIZATION_ASSIGNMENT( #32, #8, ( #36 ) );
#20 = CC_DESIGN_SECURITY_CLASSIFICATION( #35, ( #36 ) );
#21 = CC_DESIGN_PERSON_AND_ORGANIZATION_ASSIGNMENT( #32, #9, ( #35 ) );
#22 = SHAPE_DEFINITION_REPRESENTATION( #39, #40 );
#23 =  ( GEOMETRIC_REPRESENTATION_CONTEXT( 3 )GLOBAL_UNCERTAINTY_ASSIGNED_CONTEXT( ( #43 ) )GLOBAL_UNIT_ASSIGNED_CONTEXT( ( #45, #46, #47 ) )REPRESENTATION_CONTEXT( 'NONE', 'WORKSPACE' ) );
#27 = APPLICATION_CONTEXT( 'CONFIGURATION CONTROLLED 3D DESIGNS OF MECHANICAL PARTS AND ASSEMBLIES' );
#28 = PRODUCT_CATEGORY( 'part', 'NONE' );
#29 = PRODUCT_RELATED_PRODUCT_CATEGORY( 'detail', ' ', ( #38 ) );
#30 = CALENDAR_DATE( 2009, 10, 10 );
#31 = LOCAL_TIME( 15, 57, 43.0000000000000, #49 );
#32 = PERSON_AND_ORGANIZATION( #50, #51 );
#33 = APPROVAL( #52, 'SOLID MODEL' );
#34 = APPROVAL_ROLE( 'APPROVED' );
#35 = SECURITY_CLASSIFICATION( '', '', #53 );
#36 = PRODUCT_DEFINITION_FORMATION_WITH_SPECIFIED_SOURCE( ' ', 'NONE', #38, .NOT_KNOWN. );
#37 = PRODUCT_DEFINITION( 'NONE', 'NONE', #36, #1 );
#38 = PRODUCT( '1', '1', 'PART-1-DESC', ( #54 ) );
#39 = PRODUCT_DEFINITION_SHAPE( 'NONE', 'NONE', #37 );
#40 = ADVANCED_BREP_SHAPE_REPRESENTATION( '1', ( #55, #56 ), #23 );
#43 = UNCERTAINTY_MEASURE_WITH_UNIT( LENGTH_MEASURE( 0.00100000000000000 ), #45, '', '' );
#45 =  ( CONVERSION_BASED_UNIT( 'MILLIMETRE', #59 )LENGTH_UNIT(  )NAMED_UNIT( #62 ) );
#46 =  ( NAMED_UNIT( #64 )PLANE_ANGLE_UNIT(  )SI_UNIT( $, .RADIAN. ) );
#47 =  ( NAMED_UNIT( #64 )SOLID_ANGLE_UNIT(  )SI_UNIT( $, .STERADIAN. ) );
#49 = COORDINATED_UNIVERSAL_TIME_OFFSET( 8, 0, .AHEAD. );
#50 = PERSON( '', 'UNSPECIFIED', $, $, $, $ );
#51 = ORGANIZATION( 'UNSPECIFIED', 'UNSPECIFIED', 'UNSPECIFIED' );
#52 = APPROVAL_STATUS( 'approved' );
#53 = SECURITY_CLASSIFICATION_LEVEL( 'unclassified' );
#54 = MECHANICAL_CONTEXT( '', #27, 'mechanical' );
#55 = MANIFOLD_SOLID_BREP( '1', #70 );
#56 = AXIS2_PLACEMENT_3D( '', #71, #72, #73 );
#59 = LENGTH_MEASURE_WITH_UNIT( LENGTH_MEASURE( 1.00000000000000 ), #74 );
#62 = DIMENSIONAL_EXPONENTS( 1.00000000000000, 0.000000000000000, 0.000000000000000, 0.000000000000000, 0.000000000000000, 0.000000000000000, 0.000000000000000 );
#64 = DIMENSIONAL_EXPONENTS( 0.000000000000000, 0.000000000000000, 0.000000000000000, 0.000000000000000, 0.000000000000000, 0.000000000000000, 0.000000000000000 );
#70 = CLOSED_SHELL( '', ( #75, #76, #77, #78, #79, #80, #81, #82, #83, #84, #85, #86 ) );
#71 = CARTESIAN_POINT( '', ( 0.000000000000000, 0.000000000000000, 0.000000000000000 ) );
#72 = DIRECTION( '', ( 0.000000000000000, 0.000000000000000, 1.00000000000000 ) );
#73 = DIRECTION( '', ( 1.00000000000000, 0.000000000000000, 0.000000000000000 ) );
#74 =  ( NAMED_UNIT( #62 )LENGTH_UNIT(  )SI_UNIT( .MILLI., .METRE. ) );
#75 = ADVANCED_FACE( '', ( #88, #89 ), #90, .T. );
#76 = ADVANCED_FACE( '', ( #91, #92 ), #93, .F. );
#77 = ADVANCED_FACE( '', ( #94 ), #95, .T. );
#78 = ADVANCED_FACE( '', ( #96 ), #97, .F. );
#79 = ADVANCED_FACE( '', ( #98 ), #99, .F. );
#80 = ADVANCED_FACE( '', ( #100 ), #101, .T. );
#81 = ADVANCED_FACE( '', ( #102 ), #103, .F. );
#82 = ADVANCED_FACE( '', ( #104, #105 ), #106, .T. );
#83 = ADVANCED_FACE( '', ( #107, #108 ), #109, .T. );
#84 = ADVANCED_FACE( '', ( #110 ), #111, .T. );
#85 = ADVANCED_FACE( '', ( #112 ), #113, .T. );
#86 = ADVANCED_FACE( '', ( #114 ), #115, .T. );
#88 = FACE_OUTER_BOUND( '', #116, .T. );
#89 = FACE_OUTER_BOUND( '', #117, .T. );
#90 = CYLINDRICAL_SURFACE( '', #118, 7.00000000000000 );
#91 = FACE_OUTER_BOUND( '', #119, .T. );
#92 = FACE_OUTER_BOUND( '', #120, .T. );
#93 = TOROIDAL_SURFACE( '', #121, 7.45000000000000, 1.50000000000000 );
#94 = FACE_OUTER_BOUND( '', #122, .T. );
#95 = PLANE( '', #123 );
#96 = FACE_OUTER_BOUND( '', #124, .T. );
#97 = CYLINDRICAL_SURFACE( '', #125, 16.9000000000000 );
#98 = FACE_OUTER_BOUND( '', #126, .T. );
#99 = PLANE( '', #127 );
#100 = FACE_OUTER_BOUND( '', #128, .T. );
#101 = PLANE( '', #129 );
#102 = FACE_OUTER_BOUND( '', #130, .T. );
#103 = PLANE( '', #131 );
#104 = FACE_BOUND( '', #132, .T. );
#105 = FACE_OUTER_BOUND( '', #133, .T. );
#106 = CONICAL_SURFACE( '', #134, 5.95000000000000, 0.785398163397448 );
#107 = FACE_OUTER_BOUND( '', #135, .T. );
#108 = FACE_OUTER_BOUND( '', #136, .T. );
#109 = CYLINDRICAL_SURFACE( '', #137, 5.95000000000000 );
#110 = FACE_OUTER_BOUND( '', #138, .T. );
#111 = PLANE( '', #139 );
#112 = FACE_OUTER_BOUND( '', #140, .T. );
#113 = PLANE( '', #141 );
#114 = FACE_OUTER_BOUND( '', #142, .T. );
#115 = PLANE( '', #143 );
#116 = EDGE_LOOP( '', ( #144 ) );
#117 = EDGE_LOOP( '', ( #145, #146, #147, #148, #149, #150, #151, #152, #153, #154, #155, #156 ) );
#118 = AXIS2_PLACEMENT_3D( '', #157, #158, #159 );
#119 = EDGE_LOOP( '', ( #160 ) );
#120 = EDGE_LOOP( '', ( #161 ) );
#121 = AXIS2_PLACEMENT_3D( '', #162, #163, #164 );
#122 = EDGE_LOOP( '', ( #165, #166, #167, #168 ) );
#123 = AXIS2_PLACEMENT_3D( '', #169, #170, #171 );
#124 = EDGE_LOOP( '', ( #172, #173, #174, #175, #176, #177, #178, #179 ) );
#125 = AXIS2_PLACEMENT_3D( '', #180, #181, #182 );
#126 = EDGE_LOOP( '', ( #183, #184, #185, #186 ) );
#127 = AXIS2_PLACEMENT_3D( '', #187, #188, #189 );
#128 = EDGE_LOOP( '', ( #190, #191 ) );
#129 = AXIS2_PLACEMENT_3D( '', #192, #193, #194 );
#130 = EDGE_LOOP( '', ( #195 ) );
#131 = AXIS2_PLACEMENT_3D( '', #196, #197, #198 );
#132 = EDGE_LOOP( '', ( #199 ) );
#133 = EDGE_LOOP( '', ( #200 ) );
#134 = AXIS2_PLACEMENT_3D( '', #201, #202, #203 );
#135 = EDGE_LOOP( '', ( #204 ) );
#136 = EDGE_LOOP( '', ( #205 ) );
#137 = AXIS2_PLACEMENT_3D( '', #206, #207, #208 );
#138 = EDGE_LOOP( '', ( #209, #210 ) );
#139 = AXIS2_PLACEMENT_3D( '', #211, #212, #213 );
#140 = EDGE_LOOP( '', ( #214, #215 ) );
#141 = AXIS2_PLACEMENT_3D( '', #216, #217, #218 );
#142 = EDGE_LOOP( '', ( #219, #220 ) );
#143 = AXIS2_PLACEMENT_3D( '', #221, #222, #223 );
#144 = ORIENTED_EDGE( '', *, *, #224, .T. );
#145 = ORIENTED_EDGE( '', *, *, #225, .F. );
#146 = ORIENTED_EDGE( '', *, *, #226, .T. );
#147 = ORIENTED_EDGE( '', *, *, #227, .F. );
#148 = ORIENTED_EDGE( '', *, *, #228, .F. );
#149 = ORIENTED_EDGE( '', *, *, #229, .F. );
#150 = ORIENTED_EDGE( '', *, *, #230, .T. );
#151 = ORIENTED_EDGE( '', *, *, #231, .F. );
#152 = ORIENTED_EDGE( '', *, *, #232, .T. );
#153 = ORIENTED_EDGE( '', *, *, #233, .T. );
#154 = ORIENTED_EDGE( '', *, *, #234, .F. );
#155 = ORIENTED_EDGE( '', *, *, #235, .T. );
#156 = ORIENTED_EDGE( '', *, *, #236, .T. );
#157 = CARTESIAN_POINT( '', ( 0.000000000000000, 0.000000000000000, 54.0000000000000 ) );
#158 = DIRECTION( '', ( -0.000000000000000, -0.000000000000000, -1.00000000000000 ) );
#159 = DIRECTION( '', ( 1.00000000000000, 0.000000000000000, 0.000000000000000 ) );
#160 = ORIENTED_EDGE( '', *, *, #237, .F. );
#161 = ORIENTED_EDGE( '', *, *, #224, .F. );
#162 = CARTESIAN_POINT( '', ( 0.000000000000000, 0.000000000000000, 20.0992594331417 ) );
#163 = DIRECTION( '', ( 0.000000000000000, 0.000000000000000, 1.00000000000000 ) );
#164 = DIRECTION( '', ( 1.00000000000000, 0.000000000000000, 0.000000000000000 ) );
#165 = ORIENTED_EDGE( '', *, *, #238, .T. );
#166 = ORIENTED_EDGE( '', *, *, #233, .F. );
#167 = ORIENTED_EDGE( '', *, *, #239, .T. );
#168 = ORIENTED_EDGE( '', *, *, #235, .F. );
#169 = CARTESIAN_POINT( '', ( 0.000000000000000, 0.750000000000000, 37.4000000000000 ) );
#170 = DIRECTION( '', ( 0.000000000000000, -1.00000000000000, 0.000000000000000 ) );
#171 = DIRECTION( '', ( 0.000000000000000, 0.000000000000000, -1.00000000000000 ) );
#172 = ORIENTED_EDGE( '', *, *, #240, .T. );
#173 = ORIENTED_EDGE( '', *, *, #236, .F. );
#174 = ORIENTED_EDGE( '', *, *, #239, .F. );
#175 = ORIENTED_EDGE( '', *, *, #232, .F. );
#176 = ORIENTED_EDGE( '', *, *, #241, .F. );
#177 = ORIENTED_EDGE( '', *, *, #230, .F. );
#178 = ORIENTED_EDGE( '', *, *, #242, .T. );
#179 = ORIENTED_EDGE( '', *, *, #226, .F. );
#180 = CARTESIAN_POINT( '', ( 0.000000000000000, -0.750000000000000, 37.4000000000000 ) );
#181 = DIRECTION( '', ( -0.000000000000000, -1.00000000000000, -0.000000000000000 ) );
#182 = DIRECTION( '', ( 0.000000000000000, 0.000000000000000, 1.00000000000000 ) );
#183 = ORIENTED_EDGE( '', *, *, #227, .T. );
#184 = ORIENTED_EDGE( '', *, *, #242, .F. );
#185 = ORIENTED_EDGE( '', *, *, #229, .T. );
#186 = ORIENTED_EDGE( '', *, *, #243, .F. );
#187 = CARTESIAN_POINT( '', ( 0.000000000000000, -0.750000000000000, 37.4000000000000 ) );
#188 = DIRECTION( '', ( 0.000000000000000, -1.00000000000000, 0.000000000000000 ) );
#189 = DIRECTION( '', ( 0.000000000000000, 0.000000000000000, -1.00000000000000 ) );
#190 = ORIENTED_EDGE( '', *, *, #243, .T. );
#191 = ORIENTED_EDGE( '', *, *, #228, .T. );
#192 = CARTESIAN_POINT( '', ( 0.000000000000000, 0.000000000000000, 22.0000000000000 ) );
#193 = DIRECTION( '', ( 0.000000000000000, 0.000000000000000, 1.00000000000000 ) );
#194 = DIRECTION( '', ( 1.00000000000000, 0.000000000000000, 0.000000000000000 ) );
#195 = ORIENTED_EDGE( '', *, *, #244, .T. );
#196 = CARTESIAN_POINT( '', ( 0.000000000000000, 0.000000000000000, 0.000000000000000 ) );
#197 = DIRECTION( '', ( 0.000000000000000, 0.000000000000000, 1.00000000000000 ) );
#198 = DIRECTION( '', ( 1.00000000000000, 0.000000000000000, 0.000000000000000 ) );
#199 = ORIENTED_EDGE( '', *, *, #244, .F. );
#200 = ORIENTED_EDGE( '', *, *, #245, .F. );
#201 = CARTESIAN_POINT( '', ( 0.000000000000000, 0.000000000000000, 1.00000000000000 ) );
#202 = DIRECTION( '', ( -0.000000000000000, -0.000000000000000, 1.00000000000000 ) );
#203 = DIRECTION( '', ( 1.00000000000000, 0.000000000000000, 0.000000000000000 ) );
#204 = ORIENTED_EDGE( '', *, *, #237, .T. );
#205 = ORIENTED_EDGE( '', *, *, #245, .T. );
#206 = CARTESIAN_POINT( '', ( 0.000000000000000, 0.000000000000000, 22.0000000000000 ) );
#207 = DIRECTION( '', ( -0.000000000000000, -0.000000000000000, 1.00000000000000 ) );
#208 = DIRECTION( '', ( -1.00000000000000, 0.000000000000000, 0.000000000000000 ) );
#209 = ORIENTED_EDGE( '', *, *, #234, .T. );
#210 = ORIENTED_EDGE( '', *, *, #238, .F. );
#211 = CARTESIAN_POINT( '', ( 0.000000000000000, 0.000000000000000, 22.0000000000000 ) );
#212 = DIRECTION( '', ( 0.000000000000000, 0.000000000000000, 1.00000000000000 ) );
#213 = DIRECTION( '', ( 1.00000000000000, 0.000000000000000, 0.000000000000000 ) );
#214 = ORIENTED_EDGE( '', *, *, #231, .T. );
#215 = ORIENTED_EDGE( '', *, *, #241, .T. );
#216 = CARTESIAN_POINT( '', ( 0.000000000000000, 0.000000000000000, 22.0000000000000 ) );
#217 = DIRECTION( '', ( 0.000000000000000, 0.000000000000000, 1.00000000000000 ) );
#218 = DIRECTION( '', ( 1.00000000000000, 0.000000000000000, 0.000000000000000 ) );
#219 = ORIENTED_EDGE( '', *, *, #225, .T. );
#220 = ORIENTED_EDGE( '', *, *, #240, .F. );
#221 = CARTESIAN_POINT( '', ( 0.000000000000000, 0.000000000000000, 22.0000000000000 ) );
#222 = DIRECTION( '', ( 0.000000000000000, 0.000000000000000, 1.00000000000000 ) );
#223 = DIRECTION( '', ( 1.00000000000000, 0.000000000000000, 0.000000000000000 ) );
#224 = EDGE_CURVE( '', #246, #246, #247, .T. );
#225 = EDGE_CURVE( '', #248, #249, #250, .T. );
#226 = EDGE_CURVE( '', #248, #251, #252, .T. );
#227 = EDGE_CURVE( '', #253, #251, #254, .F. );
#228 = EDGE_CURVE( '', #255, #253, #256, .T. );
#229 = EDGE_CURVE( '', #257, #255, #258, .T. );
#230 = EDGE_CURVE( '', #257, #259, #260, .T. );
#231 = EDGE_CURVE( '', #261, #259, #262, .T. );
#232 = EDGE_CURVE( '', #261, #263, #264, .T. );
#233 = EDGE_CURVE( '', #263, #265, #266, .T. );
#234 = EDGE_CURVE( '', #267, #265, #268, .T. );
#235 = EDGE_CURVE( '', #267, #269, #270, .F. );
#236 = EDGE_CURVE( '', #269, #249, #271, .T. );
#237 = EDGE_CURVE( '', #272, #272, #273, .F. );
#238 = EDGE_CURVE( '', #267, #265, #274, .T. );
#239 = EDGE_CURVE( '', #263, #269, #275, .T. );
#240 = EDGE_CURVE( '', #248, #249, #276, .T. );
#241 = EDGE_CURVE( '', #259, #261, #277, .T. );
#242 = EDGE_CURVE( '', #257, #251, #278, .T. );
#243 = EDGE_CURVE( '', #253, #255, #279, .T. );
#244 = EDGE_CURVE( '', #280, #280, #281, .F. );
#245 = EDGE_CURVE( '', #282, #282, #283, .T. );
#246 = VERTEX_POINT( '', #284 );
#247 = CIRCLE( '', #285, 7.00000000000000 );
#248 = VERTEX_POINT( '', #286 );
#249 = VERTEX_POINT( '', #287 );
#250 = CIRCLE( '', #288, 7.00000000000000 );
#251 = VERTEX_POINT( '', #289 );
#252 = B_SPLINE_CURVE_WITH_KNOTS( '', 3, ( #290, #291, #292, #293 ), .UNSPECIFIED., .F., .F., ( 4, 4 ), ( 8.93266794042054E-018, 8.43789004200834E-006 ), .UNSPECIFIED. );
#253 = VERTEX_POINT( '', #294 );
#254 = LINE( '', #295, #296 );
#255 = VERTEX_POINT( '', #297 );
#256 = CIRCLE( '', #298, 7.00000000000000 );
#257 = VERTEX_POINT( '', #299 );
#258 = LINE( '', #300, #301 );
#259 = VERTEX_POINT( '', #302 );
#260 = B_SPLINE_CURVE_WITH_KNOTS( '', 3, ( #303, #304, #305, #306 ), .UNSPECIFIED., .F., .F., ( 4, 4 ), ( 0.000000000000000, 8.43789004199934E-006 ), .UNSPECIFIED. );
#261 = VERTEX_POINT( '', #307 );
#262 = CIRCLE( '', #308, 7.00000000000000 );
#263 = VERTEX_POINT( '', #309 );
#264 = B_SPLINE_CURVE_WITH_KNOTS( '', 3, ( #310, #311, #312, #313 ), .UNSPECIFIED., .F., .F., ( 4, 4 ), ( 8.93266794042054E-018, 8.43789004200834E-006 ), .UNSPECIFIED. );
#265 = VERTEX_POINT( '', #314 );
#266 = LINE( '', #315, #316 );
#267 = VERTEX_POINT( '', #317 );
#268 = CIRCLE( '', #318, 7.00000000000000 );
#269 = VERTEX_POINT( '', #319 );
#270 = LINE( '', #320, #321 );
#271 = B_SPLINE_CURVE_WITH_KNOTS( '', 3, ( #322, #323, #324, #325 ), .UNSPECIFIED., .F., .F., ( 4, 4 ), ( 0.000000000000000, 8.43789004199934E-006 ), .UNSPECIFIED. );
#272 = VERTEX_POINT( '', #326 );
#273 = CIRCLE( '', #327, 5.95000000000000 );
#274 = LINE( '', #328, #329 );
#275 = CIRCLE( '', #330, 16.9000000000000 );
#276 = LINE( '', #331, #332 );
#277 = LINE( '', #333, #334 );
#278 = CIRCLE( '', #335, 16.9000000000000 );
#279 = LINE( '', #336, #337 );
#280 = VERTEX_POINT( '', #338 );
#281 = CIRCLE( '', #339, 4.95000000000000 );
#282 = VERTEX_POINT( '', #340 );
#283 = CIRCLE( '', #341, 5.95000000000000 );
#284 = CARTESIAN_POINT( '', ( 7.00000000000000, 0.000000000000000, 21.5301682352672 ) );
#285 = AXIS2_PLACEMENT_3D( '', #342, #343, #344 );
#286 = CARTESIAN_POINT( '', ( 6.96060342211795, -0.741619848709530, 22.0000000000000 ) );
#287 = CARTESIAN_POINT( '', ( 6.96060342211795, 0.741619848709530, 22.0000000000000 ) );
#288 = AXIS2_PLACEMENT_3D( '', #345, #346, #347 );
#289 = CARTESIAN_POINT( '', ( 6.95970545353753, -0.750000000000000, 21.9995941611917 ) );
#290 = CARTESIAN_POINT( '', ( 6.96060342211795, -0.741619848709521, 22.0000000000000 ) );
#291 = CARTESIAN_POINT( '', ( 6.96030577714913, -0.744413447872388, 21.9998654682735 ) );
#292 = CARTESIAN_POINT( '', ( 6.96000645411715, -0.747206832832642, 21.9997301884755 ) );
#293 = CARTESIAN_POINT( '', ( 6.95970545353753, -0.750000000000000, 21.9995941611917 ) );
#294 = CARTESIAN_POINT( '', ( 6.95970545353753, -0.750000000000000, 22.0000000000000 ) );
#295 = CARTESIAN_POINT( '', ( 6.95970545353753, -0.750000000000000, 54.0000000000000 ) );
#296 = VECTOR( '', #348, 1000.00000000000 );
#297 = CARTESIAN_POINT( '', ( -6.95970545353753, -0.750000000000000, 22.0000000000000 ) );
#298 = AXIS2_PLACEMENT_3D( '', #349, #350, #351 );
#299 = CARTESIAN_POINT( '', ( -6.95970545353753, -0.750000000000000, 21.9995941611917 ) );
#300 = CARTESIAN_POINT( '', ( -6.95970545353753, -0.750000000000000, 54.0000000000000 ) );
#301 = VECTOR( '', #352, 1000.00000000000 );
#302 = CARTESIAN_POINT( '', ( -6.96060342211795, -0.741619848709530, 22.0000000000000 ) );
#303 = CARTESIAN_POINT( '', ( -6.95970545353753, -0.750000000000000, 21.9995941611917 ) );
#304 = CARTESIAN_POINT( '', ( -6.96000645411715, -0.747206832832643, 21.9997301884755 ) );
#305 = CARTESIAN_POINT( '', ( -6.96030577714913, -0.744413447872387, 21.9998654682735 ) );
#306 = CARTESIAN_POINT( '', ( -6.96060342211795, -0.741619848709521, 22.0000000000000 ) );
#307 = CARTESIAN_POINT( '', ( -6.96060342211795, 0.741619848709530, 22.0000000000000 ) );
#308 = AXIS2_PLACEMENT_3D( '', #353, #354, #355 );
#309 = CARTESIAN_POINT( '', ( -6.95970545353753, 0.750000000000000, 21.9995941611917 ) );
#310 = CARTESIAN_POINT( '', ( -6.96060342211795, 0.741619848709521, 22.0000000000000 ) );
#311 = CARTESIAN_POINT( '', ( -6.96030577714913, 0.744413447872388, 21.9998654682735 ) );
#312 = CARTESIAN_POINT( '', ( -6.96000645411715, 0.747206832832642, 21.9997301884755 ) );
#313 = CARTESIAN_POINT( '', ( -6.95970545353753, 0.750000000000000, 21.9995941611917 ) );
#314 = CARTESIAN_POINT( '', ( -6.95970545353753, 0.750000000000000, 22.0000000000000 ) );
#315 = CARTESIAN_POINT( '', ( -6.95970545353753, 0.750000000000000, 54.0000000000000 ) );
#316 = VECTOR( '', #356, 1000.00000000000 );
#317 = CARTESIAN_POINT( '', ( 6.95970545353753, 0.750000000000000, 22.0000000000000 ) );
#318 = AXIS2_PLACEMENT_3D( '', #357, #358, #359 );
#319 = CARTESIAN_POINT( '', ( 6.95970545353753, 0.750000000000000, 21.9995941611917 ) );
#320 = CARTESIAN_POINT( '', ( 6.95970545353753, 0.750000000000000, 54.0000000000000 ) );
#321 = VECTOR( '', #360, 1000.00000000000 );
#322 = CARTESIAN_POINT( '', ( 6.95970545353753, 0.750000000000000, 21.9995941611917 ) );
#323 = CARTESIAN_POINT( '', ( 6.96000645411715, 0.747206832832643, 21.9997301884755 ) );
#324 = CARTESIAN_POINT( '', ( 6.96030577714913, 0.744413447872387, 21.9998654682735 ) );
#325 = CARTESIAN_POINT( '', ( 6.96060342211795, 0.741619848709521, 22.0000000000000 ) );
#326 = CARTESIAN_POINT( '', ( 5.95000000000000, 0.000000000000000, 20.0992594331417 ) );
#327 = AXIS2_PLACEMENT_3D( '', #361, #362, #363 );
#328 = CARTESIAN_POINT( '', ( 6.96060342211795, 0.750000000000000, 22.0000000000000 ) );
#329 = VECTOR( '', #364, 1000.00000000000 );
#330 = AXIS2_PLACEMENT_3D( '', #365, #366, #367 );
#331 = CARTESIAN_POINT( '', ( 6.96060342211795, -0.750000000000000, 22.0000000000000 ) );
#332 = VECTOR( '', #368, 1000.00000000000 );
#333 = CARTESIAN_POINT( '', ( -6.96060342211795, -0.750000000000000, 22.0000000000000 ) );
#334 = VECTOR( '', #369, 1000.00000000000 );
#335 = AXIS2_PLACEMENT_3D( '', #370, #371, #372 );
#336 = CARTESIAN_POINT( '', ( 6.96060342211795, -0.750000000000000, 22.0000000000000 ) );
#337 = VECTOR( '', #373, 1000.00000000000 );
#338 = CARTESIAN_POINT( '', ( 4.95000000000000, 0.000000000000000, 0.000000000000000 ) );
#339 = AXIS2_PLACEMENT_3D( '', #374, #375, #376 );
#340 = CARTESIAN_POINT( '', ( 5.95000000000000, 0.000000000000000, 1.00000000000000 ) );
#341 = AXIS2_PLACEMENT_3D( '', #377, #378, #379 );
#342 = CARTESIAN_POINT( '', ( 0.000000000000000, 0.000000000000000, 21.5301682352672 ) );
#343 = DIRECTION( '', ( 0.000000000000000, 0.000000000000000, 1.00000000000000 ) );
#344 = DIRECTION( '', ( 1.00000000000000, 0.000000000000000, 0.000000000000000 ) );
#345 = CARTESIAN_POINT( '', ( 0.000000000000000, 0.000000000000000, 22.0000000000000 ) );
#346 = DIRECTION( '', ( 0.000000000000000, 0.000000000000000, 1.00000000000000 ) );
#347 = DIRECTION( '', ( 1.00000000000000, 0.000000000000000, 0.000000000000000 ) );
#348 = DIRECTION( '', ( 0.000000000000000, 0.000000000000000, 1.00000000000000 ) );
#349 = CARTESIAN_POINT( '', ( 0.000000000000000, 0.000000000000000, 22.0000000000000 ) );
#350 = DIRECTION( '', ( 0.000000000000000, 0.000000000000000, 1.00000000000000 ) );
#351 = DIRECTION( '', ( 1.00000000000000, 0.000000000000000, 0.000000000000000 ) );
#352 = DIRECTION( '', ( 0.000000000000000, 0.000000000000000, 1.00000000000000 ) );
#353 = CARTESIAN_POINT( '', ( 0.000000000000000, 0.000000000000000, 22.0000000000000 ) );
#354 = DIRECTION( '', ( 0.000000000000000, 0.000000000000000, 1.00000000000000 ) );
#355 = DIRECTION( '', ( 1.00000000000000, 0.000000000000000, 0.000000000000000 ) );
#356 = DIRECTION( '', ( 0.000000000000000, 0.000000000000000, 1.00000000000000 ) );
#357 = CARTESIAN_POINT( '', ( 0.000000000000000, 0.000000000000000, 22.0000000000000 ) );
#358 = DIRECTION( '', ( 0.000000000000000, 0.000000000000000, 1.00000000000000 ) );
#359 = DIRECTION( '', ( 1.00000000000000, 0.000000000000000, 0.000000000000000 ) );
#360 = DIRECTION( '', ( 0.000000000000000, 0.000000000000000, 1.00000000000000 ) );
#361 = CARTESIAN_POINT( '', ( 0.000000000000000, 0.000000000000000, 20.0992594331417 ) );
#362 = DIRECTION( '', ( 0.000000000000000, 0.000000000000000, 1.00000000000000 ) );
#363 = DIRECTION( '', ( 1.00000000000000, 0.000000000000000, 0.000000000000000 ) );
#364 = DIRECTION( '', ( -1.00000000000000, 0.000000000000000, 2.49220271688596E-016 ) );
#365 = CARTESIAN_POINT( '', ( 0.000000000000000, 0.750000000000000, 37.4000000000000 ) );
#366 = DIRECTION( '', ( 0.000000000000000, -1.00000000000000, 0.000000000000000 ) );
#367 = DIRECTION( '', ( 1.00000000000000, 0.000000000000000, 0.000000000000000 ) );
#368 = DIRECTION( '', ( 0.000000000000000, 1.00000000000000, 0.000000000000000 ) );
#369 = DIRECTION( '', ( 0.000000000000000, 1.00000000000000, 0.000000000000000 ) );
#370 = CARTESIAN_POINT( '', ( 0.000000000000000, -0.750000000000000, 37.4000000000000 ) );
#371 = DIRECTION( '', ( 0.000000000000000, -1.00000000000000, 0.000000000000000 ) );
#372 = DIRECTION( '', ( 1.00000000000000, 0.000000000000000, 0.000000000000000 ) );
#373 = DIRECTION( '', ( -1.00000000000000, 0.000000000000000, 2.49220271688596E-016 ) );
#374 = CARTESIAN_POINT( '', ( 0.000000000000000, 0.000000000000000, 0.000000000000000 ) );
#375 = DIRECTION( '', ( 0.000000000000000, 0.000000000000000, 1.00000000000000 ) );
#376 = DIRECTION( '', ( 1.00000000000000, 0.000000000000000, 0.000000000000000 ) );
#377 = CARTESIAN_POINT( '', ( 0.000000000000000, 0.000000000000000, 1.00000000000000 ) );
#378 = DIRECTION( '', ( 0.000000000000000, 0.000000000000000, 1.00000000000000 ) );
#379 = DIRECTION( '', ( 1.00000000000000, 0.000000000000000, 0.000000000000000 ) );
ENDSEC;
END-ISO-10303-21;
