ISO-10303-21;
HEADER;
FILE_DESCRIPTION( ( 'Unknown' ), '1' );
FILE_NAME( 'S:/LEAVE 2D&3D CAD/LEAVE 3D-PAR/Metric/PT/PT34-3D/PT34-16.stp', 'Unknown', ( 'Unknown' ), ( 'Unknown' ), 'XStep 1.0', 'Unknown', '  ' );
FILE_SCHEMA( ( 'CONFIG_CONTROL_DESIGN' ) );
ENDSEC;
DATA;
#1 = DESIGN_CONTEXT( '', #27, 'design' );
#2 = APPLICATION_PROTOCOL_DEFINITION( 'INTERNATIONAL STANDARD', 'config_control_design', 1994, #27 );
#3 = PRODUCT_CATEGORY_RELATIONSHIP( 'NONE', 'NONE', #28, #29 );
#4 = DATE_AND_TIME( #30, #31 );
#5 = DATE_TIME_ROLE( 'creation_date' );
#6 = DATE_TIME_ROLE( 'classification_date' );
#7 = PERSON_AND_ORGANIZATION_ROLE( 'creator' );
#8 = PERSON_AND_ORGANIZATION_ROLE( 'design_supplier' );
#9 = PERSON_AND_ORGANIZATION_ROLE( 'classification_officer' );
#10 = PERSON_AND_ORGANIZATION_ROLE( 'design_owner' );
#11 = APPROVAL_PERSON_ORGANIZATION( #32, #33, #34 );
#12 = APPROVAL_DATE_TIME( #4, #33 );
#13 = CC_DESIGN_APPROVAL( #33, ( #35, #36, #37 ) );
#14 = CC_DESIGN_DATE_AND_TIME_ASSIGNMENT( #4, #5, ( #37 ) );
#15 = CC_DESIGN_DATE_AND_TIME_ASSIGNMENT( #4, #6, ( #35 ) );
#16 = CC_DESIGN_PERSON_AND_ORGANIZATION_ASSIGNMENT( #32, #10, ( #38 ) );
#17 = CC_DESIGN_PERSON_AND_ORGANIZATION_ASSIGNMENT( #32, #7, ( #37 ) );
#18 = CC_DESIGN_PERSON_AND_ORGANIZATION_ASSIGNMENT( #32, #7, ( #36 ) );
#19 = CC_DESIGN_PERSON_AND_ORGANIZATION_ASSIGNMENT( #32, #8, ( #36 ) );
#20 = CC_DESIGN_SECURITY_CLASSIFICATION( #35, ( #36 ) );
#21 = CC_DESIGN_PERSON_AND_ORGANIZATION_ASSIGNMENT( #32, #9, ( #35 ) );
#22 = SHAPE_DEFINITION_REPRESENTATION( #39, #40 );
#23 =  ( GEOMETRIC_REPRESENTATION_CONTEXT( 3 )GLOBAL_UNCERTAINTY_ASSIGNED_CONTEXT( ( #43 ) )GLOBAL_UNIT_ASSIGNED_CONTEXT( ( #45, #46, #47 ) )REPRESENTATION_CONTEXT( 'NONE', 'WORKSPACE' ) );
#27 = APPLICATION_CONTEXT( 'CONFIGURATION CONTROLLED 3D DESIGNS OF MECHANICAL PARTS AND ASSEMBLIES' );
#28 = PRODUCT_CATEGORY( 'part', 'NONE' );
#29 = PRODUCT_RELATED_PRODUCT_CATEGORY( 'detail', ' ', ( #38 ) );
#30 = CALENDAR_DATE( 2009, 10, 10 );
#31 = LOCAL_TIME( 15, 58, 11.0000000000000, #49 );
#32 = PERSON_AND_ORGANIZATION( #50, #51 );
#33 = APPROVAL( #52, 'SOLID MODEL' );
#34 = APPROVAL_ROLE( 'APPROVED' );
#35 = SECURITY_CLASSIFICATION( '', '', #53 );
#36 = PRODUCT_DEFINITION_FORMATION_WITH_SPECIFIED_SOURCE( ' ', 'NONE', #38, .NOT_KNOWN. );
#37 = PRODUCT_DEFINITION( 'NONE', 'NONE', #36, #1 );
#38 = PRODUCT( '1', '1', 'PART-1-DESC', ( #54 ) );
#39 = PRODUCT_DEFINITION_SHAPE( 'NONE', 'NONE', #37 );
#40 = ADVANCED_BREP_SHAPE_REPRESENTATION( '1', ( #55, #56 ), #23 );
#43 = UNCERTAINTY_MEASURE_WITH_UNIT( LENGTH_MEASURE( 0.00100000000000000 ), #45, '', '' );
#45 =  ( CONVERSION_BASED_UNIT( 'MILLIMETRE', #59 )LENGTH_UNIT(  )NAMED_UNIT( #62 ) );
#46 =  ( NAMED_UNIT( #64 )PLANE_ANGLE_UNIT(  )SI_UNIT( $, .RADIAN. ) );
#47 =  ( NAMED_UNIT( #64 )SOLID_ANGLE_UNIT(  )SI_UNIT( $, .STERADIAN. ) );
#49 = COORDINATED_UNIVERSAL_TIME_OFFSET( 8, 0, .AHEAD. );
#50 = PERSON( '', 'UNSPECIFIED', $, $, $, $ );
#51 = ORGANIZATION( 'UNSPECIFIED', 'UNSPECIFIED', 'UNSPECIFIED' );
#52 = APPROVAL_STATUS( 'approved' );
#53 = SECURITY_CLASSIFICATION_LEVEL( 'unclassified' );
#54 = MECHANICAL_CONTEXT( '', #27, 'mechanical' );
#55 = MANIFOLD_SOLID_BREP( '1', #70 );
#56 = AXIS2_PLACEMENT_3D( '', #71, #72, #73 );
#59 = LENGTH_MEASURE_WITH_UNIT( LENGTH_MEASURE( 1.00000000000000 ), #74 );
#62 = DIMENSIONAL_EXPONENTS( 1.00000000000000, 0.000000000000000, 0.000000000000000, 0.000000000000000, 0.000000000000000, 0.000000000000000, 0.000000000000000 );
#64 = DIMENSIONAL_EXPONENTS( 0.000000000000000, 0.000000000000000, 0.000000000000000, 0.000000000000000, 0.000000000000000, 0.000000000000000, 0.000000000000000 );
#70 = CLOSED_SHELL( '', ( #75, #76, #77, #78, #79, #80, #81, #82, #83 ) );
#71 = CARTESIAN_POINT( '', ( 0.000000000000000, 0.000000000000000, 0.000000000000000 ) );
#72 = DIRECTION( '', ( 0.000000000000000, 0.000000000000000, 1.00000000000000 ) );
#73 = DIRECTION( '', ( 1.00000000000000, 0.000000000000000, 0.000000000000000 ) );
#74 =  ( NAMED_UNIT( #62 )LENGTH_UNIT(  )SI_UNIT( .MILLI., .METRE. ) );
#75 = ADVANCED_FACE( '', ( #85, #86 ), #87, .T. );
#76 = ADVANCED_FACE( '', ( #88, #89 ), #90, .F. );
#77 = ADVANCED_FACE( '', ( #91 ), #92, .T. );
#78 = ADVANCED_FACE( '', ( #93 ), #94, .F. );
#79 = ADVANCED_FACE( '', ( #95, #96 ), #97, .T. );
#80 = ADVANCED_FACE( '', ( #98 ), #99, .F. );
#81 = ADVANCED_FACE( '', ( #100, #101 ), #102, .T. );
#82 = ADVANCED_FACE( '', ( #103, #104 ), #105, .T. );
#83 = ADVANCED_FACE( '', ( #106 ), #107, .F. );
#85 = FACE_OUTER_BOUND( '', #108, .T. );
#86 = FACE_OUTER_BOUND( '', #109, .T. );
#87 = CYLINDRICAL_SURFACE( '', #110, 7.95000000000000 );
#88 = FACE_OUTER_BOUND( '', #111, .T. );
#89 = FACE_OUTER_BOUND( '', #112, .T. );
#90 = TOROIDAL_SURFACE( '', #113, 9.45000000000000, 1.50000000000000 );
#91 = FACE_OUTER_BOUND( '', #114, .T. );
#92 = PLANE( '', #115 );
#93 = FACE_OUTER_BOUND( '', #116, .T. );
#94 = CYLINDRICAL_SURFACE( '', #117, 21.0000000000000 );
#95 = FACE_BOUND( '', #118, .T. );
#96 = FACE_OUTER_BOUND( '', #119, .T. );
#97 = PLANE( '', #120 );
#98 = FACE_OUTER_BOUND( '', #121, .T. );
#99 = PLANE( '', #122 );
#100 = FACE_BOUND( '', #123, .T. );
#101 = FACE_OUTER_BOUND( '', #124, .T. );
#102 = CONICAL_SURFACE( '', #125, 7.95000000000000, 0.785398163397448 );
#103 = FACE_OUTER_BOUND( '', #126, .T. );
#104 = FACE_OUTER_BOUND( '', #127, .T. );
#105 = CYLINDRICAL_SURFACE( '', #128, 9.00000000000000 );
#106 = FACE_OUTER_BOUND( '', #129, .T. );
#107 = PLANE( '', #130 );
#108 = EDGE_LOOP( '', ( #131 ) );
#109 = EDGE_LOOP( '', ( #132 ) );
#110 = AXIS2_PLACEMENT_3D( '', #133, #134, #135 );
#111 = EDGE_LOOP( '', ( #136 ) );
#112 = EDGE_LOOP( '', ( #137 ) );
#113 = AXIS2_PLACEMENT_3D( '', #138, #139, #140 );
#114 = EDGE_LOOP( '', ( #141, #142 ) );
#115 = AXIS2_PLACEMENT_3D( '', #143, #144, #145 );
#116 = EDGE_LOOP( '', ( #146, #147, #148, #149 ) );
#117 = AXIS2_PLACEMENT_3D( '', #150, #151, #152 );
#118 = EDGE_LOOP( '', ( #153, #154, #155, #156 ) );
#119 = EDGE_LOOP( '', ( #157 ) );
#120 = AXIS2_PLACEMENT_3D( '', #158, #159, #160 );
#121 = EDGE_LOOP( '', ( #161 ) );
#122 = AXIS2_PLACEMENT_3D( '', #162, #163, #164 );
#123 = EDGE_LOOP( '', ( #165 ) );
#124 = EDGE_LOOP( '', ( #166 ) );
#125 = AXIS2_PLACEMENT_3D( '', #167, #168, #169 );
#126 = EDGE_LOOP( '', ( #170 ) );
#127 = EDGE_LOOP( '', ( #171 ) );
#128 = AXIS2_PLACEMENT_3D( '', #172, #173, #174 );
#129 = EDGE_LOOP( '', ( #175, #176 ) );
#130 = AXIS2_PLACEMENT_3D( '', #177, #178, #179 );
#131 = ORIENTED_EDGE( '', *, *, #180, .T. );
#132 = ORIENTED_EDGE( '', *, *, #181, .T. );
#133 = CARTESIAN_POINT( '', ( 0.000000000000000, 0.000000000000000, 25.0000000000000 ) );
#134 = DIRECTION( '', ( -0.000000000000000, -0.000000000000000, 1.00000000000000 ) );
#135 = DIRECTION( '', ( -1.00000000000000, 0.000000000000000, 0.000000000000000 ) );
#136 = ORIENTED_EDGE( '', *, *, #180, .F. );
#137 = ORIENTED_EDGE( '', *, *, #182, .F. );
#138 = CARTESIAN_POINT( '', ( 0.000000000000000, 0.000000000000000, 23.0690911978746 ) );
#139 = DIRECTION( '', ( 0.000000000000000, 0.000000000000000, 1.00000000000000 ) );
#140 = DIRECTION( '', ( 1.00000000000000, 0.000000000000000, 0.000000000000000 ) );
#141 = ORIENTED_EDGE( '', *, *, #183, .T. );
#142 = ORIENTED_EDGE( '', *, *, #184, .T. );
#143 = CARTESIAN_POINT( '', ( 0.000000000000000, 0.750000000000000, 44.0000000000000 ) );
#144 = DIRECTION( '', ( 0.000000000000000, -1.00000000000000, 0.000000000000000 ) );
#145 = DIRECTION( '', ( 0.000000000000000, 0.000000000000000, -1.00000000000000 ) );
#146 = ORIENTED_EDGE( '', *, *, #183, .F. );
#147 = ORIENTED_EDGE( '', *, *, #185, .F. );
#148 = ORIENTED_EDGE( '', *, *, #186, .T. );
#149 = ORIENTED_EDGE( '', *, *, #187, .T. );
#150 = CARTESIAN_POINT( '', ( 0.000000000000000, -0.750000000000000, 44.0000000000000 ) );
#151 = DIRECTION( '', ( -0.000000000000000, -1.00000000000000, -0.000000000000000 ) );
#152 = DIRECTION( '', ( 0.000000000000000, 0.000000000000000, 1.00000000000000 ) );
#153 = ORIENTED_EDGE( '', *, *, #188, .T. );
#154 = ORIENTED_EDGE( '', *, *, #185, .T. );
#155 = ORIENTED_EDGE( '', *, *, #184, .F. );
#156 = ORIENTED_EDGE( '', *, *, #187, .F. );
#157 = ORIENTED_EDGE( '', *, *, #189, .T. );
#158 = CARTESIAN_POINT( '', ( 0.000000000000000, 0.000000000000000, 25.0000000000000 ) );
#159 = DIRECTION( '', ( 0.000000000000000, 0.000000000000000, 1.00000000000000 ) );
#160 = DIRECTION( '', ( 1.00000000000000, 0.000000000000000, 0.000000000000000 ) );
#161 = ORIENTED_EDGE( '', *, *, #190, .T. );
#162 = CARTESIAN_POINT( '', ( 0.000000000000000, 0.000000000000000, 0.000000000000000 ) );
#163 = DIRECTION( '', ( 0.000000000000000, 0.000000000000000, 1.00000000000000 ) );
#164 = DIRECTION( '', ( 1.00000000000000, 0.000000000000000, 0.000000000000000 ) );
#165 = ORIENTED_EDGE( '', *, *, #190, .F. );
#166 = ORIENTED_EDGE( '', *, *, #181, .F. );
#167 = CARTESIAN_POINT( '', ( 0.000000000000000, 0.000000000000000, 1.00000000000000 ) );
#168 = DIRECTION( '', ( -0.000000000000000, -0.000000000000000, 1.00000000000000 ) );
#169 = DIRECTION( '', ( 1.00000000000000, 0.000000000000000, 0.000000000000000 ) );
#170 = ORIENTED_EDGE( '', *, *, #182, .T. );
#171 = ORIENTED_EDGE( '', *, *, #189, .F. );
#172 = CARTESIAN_POINT( '', ( 0.000000000000000, 0.000000000000000, 54.0000000000000 ) );
#173 = DIRECTION( '', ( -0.000000000000000, -0.000000000000000, -1.00000000000000 ) );
#174 = DIRECTION( '', ( 1.00000000000000, 0.000000000000000, 0.000000000000000 ) );
#175 = ORIENTED_EDGE( '', *, *, #186, .F. );
#176 = ORIENTED_EDGE( '', *, *, #188, .F. );
#177 = CARTESIAN_POINT( '', ( 0.000000000000000, -0.750000000000000, 44.0000000000000 ) );
#178 = DIRECTION( '', ( 0.000000000000000, -1.00000000000000, 0.000000000000000 ) );
#179 = DIRECTION( '', ( 0.000000000000000, 0.000000000000000, -1.00000000000000 ) );
#180 = EDGE_CURVE( '', #191, #191, #192, .F. );
#181 = EDGE_CURVE( '', #193, #193, #194, .T. );
#182 = EDGE_CURVE( '', #195, #195, #196, .T. );
#183 = EDGE_CURVE( '', #197, #198, #199, .T. );
#184 = EDGE_CURVE( '', #198, #197, #200, .T. );
#185 = EDGE_CURVE( '', #201, #197, #202, .T. );
#186 = EDGE_CURVE( '', #201, #203, #204, .T. );
#187 = EDGE_CURVE( '', #203, #198, #205, .T. );
#188 = EDGE_CURVE( '', #203, #201, #206, .T. );
#189 = EDGE_CURVE( '', #207, #207, #208, .T. );
#190 = EDGE_CURVE( '', #209, #209, #210, .F. );
#191 = VERTEX_POINT( '', #211 );
#192 = CIRCLE( '', #212, 7.95000000000000 );
#193 = VERTEX_POINT( '', #213 );
#194 = CIRCLE( '', #214, 7.95000000000000 );
#195 = VERTEX_POINT( '', #215 );
#196 = CIRCLE( '', #216, 9.00000000000000 );
#197 = VERTEX_POINT( '', #217 );
#198 = VERTEX_POINT( '', #218 );
#199 = CIRCLE( '', #219, 21.0000000000000 );
#200 = LINE( '', #220, #221 );
#201 = VERTEX_POINT( '', #222 );
#202 = LINE( '', #223, #224 );
#203 = VERTEX_POINT( '', #225 );
#204 = CIRCLE( '', #226, 21.0000000000000 );
#205 = LINE( '', #227, #228 );
#206 = LINE( '', #229, #230 );
#207 = VERTEX_POINT( '', #231 );
#208 = CIRCLE( '', #232, 9.00000000000000 );
#209 = VERTEX_POINT( '', #233 );
#210 = CIRCLE( '', #234, 6.95000000000000 );
#211 = CARTESIAN_POINT( '', ( 7.95000000000000, 0.000000000000000, 23.0690911978746 ) );
#212 = AXIS2_PLACEMENT_3D( '', #235, #236, #237 );
#213 = CARTESIAN_POINT( '', ( 7.95000000000000, 0.000000000000000, 1.00000000000000 ) );
#214 = AXIS2_PLACEMENT_3D( '', #238, #239, #240 );
#215 = CARTESIAN_POINT( '', ( 9.00000000000000, 0.000000000000000, 24.5000000000000 ) );
#216 = AXIS2_PLACEMENT_3D( '', #241, #242, #243 );
#217 = CARTESIAN_POINT( '', ( -8.94427190999916, 0.750000000000000, 25.0000000000000 ) );
#218 = CARTESIAN_POINT( '', ( 8.94427190999916, 0.750000000000000, 25.0000000000000 ) );
#219 = AXIS2_PLACEMENT_3D( '', #244, #245, #246 );
#220 = CARTESIAN_POINT( '', ( 8.94427190999916, 0.750000000000000, 25.0000000000000 ) );
#221 = VECTOR( '', #247, 1000.00000000000 );
#222 = CARTESIAN_POINT( '', ( -8.94427190999916, -0.750000000000000, 25.0000000000000 ) );
#223 = CARTESIAN_POINT( '', ( -8.94427190999916, -0.750000000000000, 25.0000000000000 ) );
#224 = VECTOR( '', #248, 1000.00000000000 );
#225 = CARTESIAN_POINT( '', ( 8.94427190999916, -0.750000000000000, 25.0000000000000 ) );
#226 = AXIS2_PLACEMENT_3D( '', #249, #250, #251 );
#227 = CARTESIAN_POINT( '', ( 8.94427190999916, -0.750000000000000, 25.0000000000000 ) );
#228 = VECTOR( '', #252, 1000.00000000000 );
#229 = CARTESIAN_POINT( '', ( 8.94427190999916, -0.750000000000000, 25.0000000000000 ) );
#230 = VECTOR( '', #253, 1000.00000000000 );
#231 = CARTESIAN_POINT( '', ( 9.00000000000000, 0.000000000000000, 25.0000000000000 ) );
#232 = AXIS2_PLACEMENT_3D( '', #254, #255, #256 );
#233 = CARTESIAN_POINT( '', ( 6.95000000000000, 0.000000000000000, 0.000000000000000 ) );
#234 = AXIS2_PLACEMENT_3D( '', #257, #258, #259 );
#235 = CARTESIAN_POINT( '', ( 0.000000000000000, 0.000000000000000, 23.0690911978746 ) );
#236 = DIRECTION( '', ( 0.000000000000000, 0.000000000000000, 1.00000000000000 ) );
#237 = DIRECTION( '', ( 1.00000000000000, 0.000000000000000, 0.000000000000000 ) );
#238 = CARTESIAN_POINT( '', ( 0.000000000000000, 0.000000000000000, 1.00000000000000 ) );
#239 = DIRECTION( '', ( 0.000000000000000, 0.000000000000000, 1.00000000000000 ) );
#240 = DIRECTION( '', ( 1.00000000000000, 0.000000000000000, 0.000000000000000 ) );
#241 = CARTESIAN_POINT( '', ( 0.000000000000000, 0.000000000000000, 24.5000000000000 ) );
#242 = DIRECTION( '', ( 0.000000000000000, 0.000000000000000, 1.00000000000000 ) );
#243 = DIRECTION( '', ( 1.00000000000000, 0.000000000000000, 0.000000000000000 ) );
#244 = CARTESIAN_POINT( '', ( 0.000000000000000, 0.750000000000000, 44.0000000000000 ) );
#245 = DIRECTION( '', ( 0.000000000000000, -1.00000000000000, 0.000000000000000 ) );
#246 = DIRECTION( '', ( 1.00000000000000, 0.000000000000000, 0.000000000000000 ) );
#247 = DIRECTION( '', ( -1.00000000000000, 0.000000000000000, 0.000000000000000 ) );
#248 = DIRECTION( '', ( 0.000000000000000, 1.00000000000000, 0.000000000000000 ) );
#249 = CARTESIAN_POINT( '', ( 0.000000000000000, -0.750000000000000, 44.0000000000000 ) );
#250 = DIRECTION( '', ( 0.000000000000000, -1.00000000000000, 0.000000000000000 ) );
#251 = DIRECTION( '', ( 1.00000000000000, 0.000000000000000, 0.000000000000000 ) );
#252 = DIRECTION( '', ( 0.000000000000000, 1.00000000000000, 0.000000000000000 ) );
#253 = DIRECTION( '', ( -1.00000000000000, 0.000000000000000, 0.000000000000000 ) );
#254 = CARTESIAN_POINT( '', ( 0.000000000000000, 0.000000000000000, 25.0000000000000 ) );
#255 = DIRECTION( '', ( 0.000000000000000, 0.000000000000000, 1.00000000000000 ) );
#256 = DIRECTION( '', ( 1.00000000000000, 0.000000000000000, 0.000000000000000 ) );
#257 = CARTESIAN_POINT( '', ( 0.000000000000000, 0.000000000000000, 0.000000000000000 ) );
#258 = DIRECTION( '', ( 0.000000000000000, 0.000000000000000, 1.00000000000000 ) );
#259 = DIRECTION( '', ( 1.00000000000000, 0.000000000000000, 0.000000000000000 ) );
ENDSEC;
END-ISO-10303-21;
